0
SECTION
2
BLOCKS
0
BLOCK
2
Panel1
10
0
20
0
30
0
70
0
0
POLYLINE
8
1
62
1
66
1
6
CONTINUOUS
70
1
0
VERTEX
8
1
10
5842.2500
20
1906.3900
0
VERTEX
8
1
10
5871.5197
20
1989.3954
0
VERTEX
8
1
10
5901.3796
20
2074.1570
0
VERTEX
8
1
10
5931.2190
20
2158.9380
0
VERTEX
8
1
10
5961.0378
20
2243.7685
0
VERTEX
8
1
10
5990.8462
20
2328.6388
0
VERTEX
8
1
10
6020.6241
20
2413.5488
0
VERTEX
8
1
10
6050.3915
20
2498.5090
0
VERTEX
8
1
10
6052.1009
20
2503.0185
0
VERTEX
8
1
10
6086.5910
20
2594.0123
0
VERTEX
8
1
10
6121.0513
20
2684.9860
0
VERTEX
8
1
10
6133.6481
20
2718.2900
0
VERTEX
8
1
10
6135.0660
20
2718.1623
0
VERTEX
8
1
10
6139.1946
20
2717.7642
0
VERTEX
8
1
10
6145.8464
20
2717.0728
0
VERTEX
8
1
10
6154.8339
20
2716.0654
0
VERTEX
8
1
10
6165.9696
20
2714.7193
0
VERTEX
8
1
10
6179.0658
20
2713.0118
0
VERTEX
8
1
10
6193.9350
20
2710.9200
0
VERTEX
8
1
10
6210.3898
20
2708.4212
0
VERTEX
8
1
10
6228.2425
20
2705.4928
0
VERTEX
8
1
10
6247.3056
20
2702.1119
0
VERTEX
8
1
10
6267.3916
20
2698.2559
0
VERTEX
8
1
10
6288.3130
20
2693.9018
0
VERTEX
8
1
10
6309.8822
20
2689.0271
0
VERTEX
8
1
10
6331.9116
20
2683.6090
0
VERTEX
8
1
10
6354.2137
20
2677.6248
0
VERTEX
8
1
10
6376.6011
20
2671.0516
0
VERTEX
8
1
10
6398.8861
20
2663.8667
0
VERTEX
8
1
10
6420.8811
20
2656.0474
0
VERTEX
8
1
10
6435.2459
20
2650.3888
0
VERTEX
8
1
10
6032.2537
20
1901.8282
0
VERTEX
8
1
10
5979.7164
20
1903.0898
0
VERTEX
8
1
10
5910.9937
20
1904.7399
0
VERTEX
8
1
10
5842.2500
20
1906.3900
0
SEQEND
0
POLYLINE
8
8
62
8
66
1
6
CONTINUOUS
0
VERTEX
8
8
10
6425.8760
20
2654.0798
0
VERTEX
8
8
10
6421.1357
20
2645.2747
0
SEQEND
0
TEXT
8
19
62
3
10
5863.4016
20
1925.3599
40
12.0000
50
70.2565
1
CR1/1_1
0
ENDBLK
0
BLOCK
2
Panel2
10
0
20
0
30
0
70
0
0
POLYLINE
8
1
62
1
66
1
6
CONTINUOUS
70
1
0
VERTEX
8
1
10
5842.2500
20
1906.3900
0
VERTEX
8
1
10
5871.5197
20
1989.3954
0
VERTEX
8
1
10
5901.3796
20
2074.1570
0
VERTEX
8
1
10
5931.2190
20
2158.9380
0
VERTEX
8
1
10
5938.7328
20
2180.3138
0
VERTEX
8
1
10
6425.8760
20
2654.0798
0
VERTEX
8
1
10
6442.3988
20
2647.5710
0
VERTEX
8
1
10
6463.2515
20
2638.4148
0
VERTEX
8
1
10
6463.2515
20
2638.4148
0
VERTEX
8
1
10
6507.7926
20
2614.9146
0
VERTEX
8
1
10
6547.9904
20
2588.0579
0
VERTEX
8
1
10
6583.9536
20
2558.1570
0
VERTEX
8
1
10
6615.7907
20
2525.5245
0
VERTEX
8
1
10
6643.6102
20
2490.4730
0
VERTEX
8
1
10
6659.4317
20
2465.8856
0
VERTEX
8
1
10
6078.3104
20
1900.7220
0
VERTEX
8
1
10
6048.4282
20
1901.4398
0
VERTEX
8
1
10
5979.7164
20
1903.0898
0
VERTEX
8
1
10
5910.9937
20
1904.7399
0
VERTEX
8
1
10
5842.2500
20
1906.3900
0
SEQEND
0
POLYLINE
8
8
62
8
66
1
6
CONTINUOUS
0
VERTEX
8
8
10
6653.9107
20
2474.4655
0
VERTEX
8
8
10
6646.7419
20
2467.4935
0
SEQEND
0
TEXT
8
19
62
3
10
5966.0670
20
2188.0658
40
12.0000
50
44.2024
1
CR1/1_2
0
ENDBLK
0
BLOCK
2
Panel3
10
0
20
0
30
0
70
0
0
POLYLINE
8
1
62
1
66
1
6
CONTINUOUS
70
1
0
VERTEX
8
1
10
5842.2500
20
1906.3900
0
VERTEX
8
1
10
5871.5197
20
1989.3954
0
VERTEX
8
1
10
5901.3796
20
2074.1570
0
VERTEX
8
1
10
5904.1830
20
2082.1223
0
VERTEX
8
1
10
6653.9107
20
2474.4655
0
VERTEX
8
1
10
6667.5208
20
2453.3148
0
VERTEX
8
1
10
6687.6308
20
2414.3626
0
VERTEX
8
1
10
6704.0490
20
2373.9288
0
VERTEX
8
1
10
6716.8838
20
2332.3258
0
VERTEX
8
1
10
6726.2438
20
2289.8663
0
VERTEX
8
1
10
6732.2375
20
2246.8627
0
VERTEX
8
1
10
6734.9736
20
2203.6276
0
VERTEX
8
1
10
6734.7543
20
2180.7191
0
VERTEX
8
1
10
6194.3796
20
1897.9333
0
VERTEX
8
1
10
6185.7897
20
1898.1398
0
VERTEX
8
1
10
6117.1192
20
1899.7898
0
VERTEX
8
1
10
6048.4282
20
1901.4398
0
VERTEX
8
1
10
5979.7164
20
1903.0898
0
VERTEX
8
1
10
5910.9937
20
1904.7399
0
VERTEX
8
1
10
5842.2500
20
1906.3900
0
SEQEND
0
POLYLINE
8
8
62
8
66
1
6
CONTINUOUS
0
VERTEX
8
8
10
6734.8629
20
2192.0625
0
VERTEX
8
8
10
6726.0028
20
2187.4258
0
SEQEND
0
TEXT
8
19
62
3
10
5932.5927
20
2081.7527
40
12.0000
50
27.6237
1
CR1/1_3
0
ENDBLK
0
BLOCK
2
Panel4
10
0
20
0
30
0
70
0
0
POLYLINE
8
1
62
1
66
1
6
CONTINUOUS
70
1
0
VERTEX
8
1
10
5842.2500
20
1906.3900
0
VERTEX
8
1
10
5871.5197
20
1989.3954
0
VERTEX
8
1
10
5891.1126
20
2045.0128
0
VERTEX
8
1
10
6734.8629
20
2192.0625
0
VERTEX
8
1
10
6734.5605
20
2160.4733
0
VERTEX
8
1
10
6731.1069
20
2117.7125
0
VERTEX
8
1
10
6724.7212
20
2075.6576
0
VERTEX
8
1
10
6715.5120
20
2034.6211
0
VERTEX
8
1
10
6703.5880
20
1994.9155
0
VERTEX
8
1
10
6689.0575
20
1956.8534
0
VERTEX
8
1
10
6672.0293
20
1920.7472
0
VERTEX
8
1
10
6652.6117
20
1886.9095
0
VERTEX
8
1
10
6597.3568
20
1888.2396
0
VERTEX
8
1
10
6528.8230
20
1889.8897
0
VERTEX
8
1
10
6460.2610
20
1891.5397
0
VERTEX
8
1
10
6391.6800
20
1893.1898
0
VERTEX
8
1
10
6323.0698
20
1894.8398
0
VERTEX
8
1
10
6254.4398
20
1896.4898
0
VERTEX
8
1
10
6185.7897
20
1898.1398
0
VERTEX
8
1
10
6117.1192
20
1899.7898
0
VERTEX
8
1
10
6048.4282
20
1901.4398
0
VERTEX
8
1
10
5979.7164
20
1903.0898
0
VERTEX
8
1
10
5910.9937
20
1904.7399
0
VERTEX
8
1
10
5842.2500
20
1906.3900
0
SEQEND
0
POLYLINE
8
8
62
8
66
1
6
CONTINUOUS
0
VERTEX
8
8
10
6658.2737
20
1896.7763
0
VERTEX
8
8
10
6648.2766
20
1897.0166
0
SEQEND
0
TEXT
8
19
62
3
10
5918.0593
20
2036.0056
40
12.0000
50
9.8863
1
CR1/1_4
0
ENDBLK
0
BLOCK
2
Panel5
10
0
20
0
30
0
70
0
0
POLYLINE
8
1
62
1
66
1
6
CONTINUOUS
70
1
0
VERTEX
8
1
10
5769.1592
20
1706.7479
0
VERTEX
8
1
10
5779.8800
20
1735.9899
0
VERTEX
8
1
10
5810.7600
20
1820.3199
0
VERTEX
8
1
10
5842.2500
20
1906.3900
0
VERTEX
8
1
10
5871.5197
20
1989.3954
0
VERTEX
8
1
10
5901.3796
20
2074.1570
0
VERTEX
8
1
10
5909.0374
20
2095.9148
0
VERTEX
8
1
10
6658.2737
20
1896.7763
0
VERTEX
8
1
10
6652.6117
20
1886.9095
0
VERTEX
8
1
10
6652.6117
20
1886.9095
0
VERTEX
8
1
10
6644.1885
20
1874.0625
0
VERTEX
8
1
10
6635.3905
20
1861.6251
0
VERTEX
8
1
10
6626.2087
20
1849.5933
0
VERTEX
8
1
10
6616.6340
20
1837.9629
0
VERTEX
8
1
10
6606.6573
20
1826.7297
0
VERTEX
8
1
10
6596.2695
20
1815.8897
0
VERTEX
8
1
10
6585.4616
20
1805.4387
0
VERTEX
8
1
10
6574.2244
20
1795.3725
0
VERTEX
8
1
10
6562.5490
20
1785.6870
0
VERTEX
8
1
10
6550.4262
20
1776.3782
0
VERTEX
8
1
10
6537.8469
20
1767.4418
0
VERTEX
8
1
10
6524.8021
20
1758.8736
0
VERTEX
8
1
10
6511.2826
20
1750.6697
0
VERTEX
8
1
10
6497.2795
20
1742.8258
0
VERTEX
8
1
10
6482.7835
20
1735.3379
0
VERTEX
8
1
10
6467.7857
20
1728.2016
0
VERTEX
8
1
10
6452.2770
20
1721.4131
0
VERTEX
8
1
10
6436.2483
20
1714.9680
0
VERTEX
8
1
10
6419.6904
20
1708.8623
0
VERTEX
8
1
10
6402.5944
20
1703.0918
0
VERTEX
8
1
10
6402.5944
20
1703.0918
0
VERTEX
8
1
10
6364.5416
20
1691.9202
0
VERTEX
8
1
10
6324.4512
20
1682.1525
0
VERTEX
8
1
10
6282.7546
20
1673.6987
0
VERTEX
8
1
10
6239.8831
20
1666.4692
0
VERTEX
8
1
10
6196.2681
20
1660.3739
0
VERTEX
8
1
10
6152.3408
20
1655.3231
0
VERTEX
8
1
10
6108.5327
20
1651.2268
0
VERTEX
8
1
10
6065.2751
20
1647.9953
0
VERTEX
8
1
10
6022.9992
20
1645.5387
0
VERTEX
8
1
10
6002.7540
20
1644.6610
0
VERTEX
8
1
10
5769.1592
20
1706.7479
0
SEQEND
0
POLYLINE
8
8
62
8
66
1
6
CONTINUOUS
0
VERTEX
8
8
10
6035.6221
20
1646.2722
0
VERTEX
8
8
10
6025.9576
20
1648.8409
0
SEQEND
0
TEXT
8
19
62
3
10
5929.7308
20
2076.4460
40
12.0000
50
345.1156
1
CR1/1_5
0
ENDBLK
0
BLOCK
2
Panel6
10
0
20
0
30
0
70
0
0
POLYLINE
8
1
62
1
66
1
6
CONTINUOUS
70
1
0
VERTEX
8
1
10
6031.4043
20
2444.3170
0
VERTEX
8
1
10
6035.6221
20
1646.2722
0
VERTEX
8
1
10
6022.9992
20
1645.5387
0
VERTEX
8
1
10
5982.1366
20
1643.7671
0
VERTEX
8
1
10
5943.1185
20
1642.5907
0
VERTEX
8
1
10
5906.3762
20
1641.9196
0
VERTEX
8
1
10
5872.3411
20
1641.6640
0
VERTEX
8
1
10
5841.4446
20
1641.7340
0
VERTEX
8
1
10
5814.1179
20
1642.0397
0
VERTEX
8
1
10
5790.7925
20
1642.4914
0
VERTEX
8
1
10
5771.8997
20
1642.9991
0
VERTEX
8
1
10
5757.8707
20
1643.4730
0
VERTEX
8
1
10
5749.1370
20
1643.8232
0
VERTEX
8
1
10
5746.1300
20
1643.9599
0
VERTEX
8
1
10
5748.9700
20
1651.6799
0
VERTEX
8
1
10
5779.8800
20
1735.9899
0
VERTEX
8
1
10
5810.7600
20
1820.3199
0
VERTEX
8
1
10
5842.2500
20
1906.3900
0
VERTEX
8
1
10
5871.5197
20
1989.3954
0
VERTEX
8
1
10
5901.3796
20
2074.1570
0
VERTEX
8
1
10
5931.2190
20
2158.9380
0
VERTEX
8
1
10
5961.0378
20
2243.7685
0
VERTEX
8
1
10
5990.8462
20
2328.6388
0
VERTEX
8
1
10
6020.6241
20
2413.5488
0
VERTEX
8
1
10
6031.4043
20
2444.3170
0
SEQEND
0
TEXT
8
19
62
3
10
6018.0366
20
2419.2460
40
12.0000
50
270.3028
1
CR1/1_6
0
ENDBLK
0
BLOCK
2
Panel7
10
0
20
0
30
0
70
0
0
POLYLINE
8
1
62
1
66
1
6
CONTINUOUS
70
1
0
VERTEX
8
1
10
10397.1100
20
1787.1400
0
VERTEX
8
1
10
10397.6900
20
1832.0200
0
VERTEX
8
1
10
10398.8400
20
1923.5400
0
VERTEX
8
1
10
10399.9700
20
2015.0500
0
VERTEX
8
1
10
10401.0700
20
2106.5700
0
VERTEX
8
1
10
10402.1400
20
2198.0800
0
VERTEX
8
1
10
10403.1800
20
2289.6000
0
VERTEX
8
1
10
10404.2000
20
2381.1100
0
VERTEX
8
1
10
10404.2600
20
2386.4800
0
VERTEX
8
1
10
10403.1225
20
2386.5046
0
VERTEX
8
1
10
10399.8051
20
2386.5550
0
VERTEX
8
1
10
10394.4505
20
2386.5968
0
VERTEX
8
1
10
10387.2014
20
2386.5949
0
VERTEX
8
1
10
10378.2004
20
2386.5149
0
VERTEX
8
1
10
10367.5903
20
2386.3218
0
VERTEX
8
1
10
10355.5136
20
2385.9810
0
VERTEX
8
1
10
10342.1132
20
2385.4578
0
VERTEX
8
1
10
10327.5317
20
2384.7174
0
VERTEX
8
1
10
10311.9117
20
2383.7250
0
VERTEX
8
1
10
10295.3960
20
2382.4460
0
VERTEX
8
1
10
10278.1272
20
2380.8456
0
VERTEX
8
1
10
10260.2480
20
2378.8891
0
VERTEX
8
1
10
10241.9011
20
2376.5417
0
VERTEX
8
1
10
10223.2291
20
2373.7687
0
VERTEX
8
1
10
10204.3748
20
2370.5354
0
VERTEX
8
1
10
10185.4809
20
2366.8071
0
VERTEX
8
1
10
10166.6899
20
2362.5489
0
VERTEX
8
1
10
10148.1447
20
2357.7262
0
VERTEX
8
1
10
10129.9878
20
2352.3043
0
VERTEX
8
1
10
10129.9878
20
2352.3043
0
VERTEX
8
1
10
10091.2053
20
2337.9211
0
VERTEX
8
1
10
10085.0959
20
2334.9948
0
VERTEX
8
1
10
10219.2058
20
1791.6042
0
VERTEX
8
1
10
10243.6759
20
1790.9851
0
VERTEX
8
1
10
10294.5403
20
1789.7042
0
VERTEX
8
1
10
10345.6854
20
1788.4226
0
VERTEX
8
1
10
10397.1100
20
1787.1400
0
SEQEND
0
POLYLINE
8
8
62
8
66
1
6
CONTINUOUS
0
VERTEX
8
8
10
10094.3829
20
2339.0996
0
VERTEX
8
8
10
10096.7790
20
2329.3909
0
SEQEND
0
TEXT
8
19
62
3
10
10395.9083
20
1812.1561
40
12.0000
50
89.3165
1
TR1/3_1
0
ENDBLK
0
BLOCK
2
Panel8
10
0
20
0
30
0
70
0
0
POLYLINE
8
1
62
1
66
1
6
CONTINUOUS
70
1
0
VERTEX
8
1
10
10397.1100
20
1787.1400
0
VERTEX
8
1
10
10397.6900
20
1832.0200
0
VERTEX
8
1
10
10398.8400
20
1923.5400
0
VERTEX
8
1
10
10399.8725
20
2007.1539
0
VERTEX
8
1
10
10094.3829
20
2339.0996
0
VERTEX
8
1
10
10091.2053
20
2337.9211
0
VERTEX
8
1
10
10055.0763
20
2320.6156
0
VERTEX
8
1
10
10021.5922
20
2300.6435
0
VERTEX
8
1
10
9990.7443
20
2278.2609
0
VERTEX
8
1
10
9962.5239
20
2253.7236
0
VERTEX
8
1
10
9936.9223
20
2227.2876
0
VERTEX
8
1
10
9913.9307
20
2199.2088
0
VERTEX
8
1
10
9893.5404
20
2169.7430
0
VERTEX
8
1
10
9875.7429
20
2139.1463
0
VERTEX
8
1
10
9863.6121
20
2114.0520
0
VERTEX
8
1
10
10158.9540
20
1793.1328
0
VERTEX
8
1
10
10193.0715
20
1792.2655
0
VERTEX
8
1
10
10243.6759
20
1790.9851
0
VERTEX
8
1
10
10294.5403
20
1789.7042
0
VERTEX
8
1
10
10345.6854
20
1788.4226
0
VERTEX
8
1
10
10397.1100
20
1787.1400
0
SEQEND
0
POLYLINE
8
8
62
8
66
1
6
CONTINUOUS
0
VERTEX
8
8
10
9868.2923
20
2123.7337
0
VERTEX
8
8
10
9875.0641
20
2116.3755
0
SEQEND
0
TEXT
8
19
62
3
10
10381.8394
20
2024.5337
40
12.0000
50
132.6234
1
TR1/3_2
0
ENDBLK
0
BLOCK
2
Panel9
10
0
20
0
30
0
70
0
0
POLYLINE
8
1
62
1
66
1
6
CONTINUOUS
70
1
0
VERTEX
8
1
10
10397.1100
20
1787.1400
0
VERTEX
8
1
10
10397.6900
20
1832.0200
0
VERTEX
8
1
10
10398.8400
20
1923.5400
0
VERTEX
8
1
10
10399.1170
20
1945.9733
0
VERTEX
8
1
10
9868.2923
20
2123.7337
0
VERTEX
8
1
10
9860.5292
20
2107.6745
0
VERTEX
8
1
10
9847.8908
20
2075.5836
0
VERTEX
8
1
10
9837.8190
20
2043.1295
0
VERTEX
8
1
10
9830.3049
20
2010.5681
0
VERTEX
8
1
10
9825.3400
20
1978.1553
0
VERTEX
8
1
10
9822.9155
20
1946.1470
0
VERTEX
8
1
10
9823.0227
20
1914.7992
0
VERTEX
8
1
10
9825.6529
20
1884.3678
0
VERTEX
8
1
10
9830.7974
20
1855.1087
0
VERTEX
8
1
10
9838.4475
20
1827.2778
0
VERTEX
8
1
10
9848.5945
20
1801.1311
0
VERTEX
8
1
10
9894.1038
20
1799.9488
0
VERTEX
8
1
10
9943.4476
20
1798.6671
0
VERTEX
8
1
10
9992.9652
20
1797.3861
0
VERTEX
8
1
10
10042.6733
20
1796.1057
0
VERTEX
8
1
10
10092.5886
20
1794.8255
0
VERTEX
8
1
10
10142.7187
20
1793.5455
0
VERTEX
8
1
10
10193.0715
20
1792.2655
0
VERTEX
8
1
10
10243.6759
20
1790.9851
0
VERTEX
8
1
10
10294.5403
20
1789.7042
0
VERTEX
8
1
10
10345.6854
20
1788.4226
0
VERTEX
8
1
10
10397.1100
20
1787.1400
0
SEQEND
0
POLYLINE
8
8
62
8
66
1
6
CONTINUOUS
0
VERTEX
8
8
10
9844.6737
20
1811.2344
0
VERTEX
8
8
10
9854.6704
20
1810.9794
0
SEQEND
0
TEXT
8
19
62
3
10
10374.9346
20
1952.4895
40
12.0000
50
161.4855
1
TR1/3_3
0
ENDBLK
0
BLOCK
2
Panel10
10
0
20
0
30
0
70
0
0
POLYLINE
8
1
62
1
66
1
6
CONTINUOUS
70
1
0
VERTEX
8
1
10
10395.5883
20
1644.7544
0
VERTEX
8
1
10
10395.6351
20
1648.9861
0
VERTEX
8
1
10
10396.6197
20
1740.5087
0
VERTEX
8
1
10
10397.1100
20
1787.1400
0
VERTEX
8
1
10
10397.6900
20
1832.0200
0
VERTEX
8
1
10
10398.8288
20
1922.6449
0
VERTEX
8
1
10
9844.6737
20
1811.2344
0
VERTEX
8
1
10
9848.5945
20
1801.1311
0
VERTEX
8
1
10
9848.5945
20
1801.1311
0
VERTEX
8
1
10
9855.9121
20
1786.2800
0
VERTEX
8
1
10
9864.1317
20
1772.1071
0
VERTEX
8
1
10
9873.2517
20
1758.5859
0
VERTEX
8
1
10
9883.2705
20
1745.6899
0
VERTEX
8
1
10
9894.1864
20
1733.3928
0
VERTEX
8
1
10
9905.9977
20
1721.6678
0
VERTEX
8
1
10
9918.7027
20
1710.4887
0
VERTEX
8
1
10
9932.2998
20
1699.8290
0
VERTEX
8
1
10
9946.7874
20
1689.6621
0
VERTEX
8
1
10
9962.1637
20
1679.9616
0
VERTEX
8
1
10
9978.4271
20
1670.7010
0
VERTEX
8
1
10
9995.5759
20
1661.8539
0
VERTEX
8
1
10
10013.6085
20
1653.3937
0
VERTEX
8
1
10
10032.5232
20
1645.2941
0
VERTEX
8
1
10
10052.3183
20
1637.5284
0
VERTEX
8
1
10
10072.9923
20
1630.0703
0
VERTEX
8
1
10
10094.5433
20
1622.8933
0
VERTEX
8
1
10
10116.9697
20
1615.9709
0
VERTEX
8
1
10
10140.2700
20
1609.2766
0
VERTEX
8
1
10
10164.4423
20
1602.7839
0
VERTEX
8
1
10
10164.4423
20
1602.7839
0
VERTEX
8
1
10
10174.3069
20
1600.2667
0
VERTEX
8
1
10
10395.5883
20
1644.7544
0
SEQEND
0
POLYLINE
8
8
62
8
66
1
6
CONTINUOUS
0
VERTEX
8
8
10
10152.3062
20
1606.0436
0
VERTEX
8
8
10
10162.1101
20
1608.0147
0
SEQEND
0
TEXT
8
19
62
3
10
10374.6148
20
1916.2468
40
12.0000
50
191.3675
1
TR1/3_4
0
ENDBLK
0
BLOCK
2
Panel11
10
0
20
0
30
0
70
0
0
POLYLINE
8
1
62
1
66
1
6
CONTINUOUS
70
1
0
VERTEX
8
1
10
10400.3831
20
2049.4220
0
VERTEX
8
1
10
10152.3062
20
1606.0436
0
VERTEX
8
1
10
10164.4423
20
1602.7839
0
VERTEX
8
1
10
10164.4423
20
1602.7839
0
VERTEX
8
1
10
10180.1243
20
1598.7822
0
VERTEX
8
1
10
10196.0406
20
1594.8635
0
VERTEX
8
1
10
10212.0789
20
1591.0409
0
VERTEX
8
1
10
10228.1268
20
1587.3278
0
VERTEX
8
1
10
10244.0722
20
1583.7373
0
VERTEX
8
1
10
10259.8027
20
1580.2826
0
VERTEX
8
1
10
10275.2059
20
1576.9770
0
VERTEX
8
1
10
10290.1697
20
1573.8336
0
VERTEX
8
1
10
10304.5817
20
1570.8658
0
VERTEX
8
1
10
10318.3296
20
1568.0867
0
VERTEX
8
1
10
10331.3011
20
1565.5095
0
VERTEX
8
1
10
10343.3840
20
1563.1475
0
VERTEX
8
1
10
10354.4659
20
1561.0139
0
VERTEX
8
1
10
10364.4346
20
1559.1218
0
VERTEX
8
1
10
10373.1777
20
1557.4846
0
VERTEX
8
1
10
10380.5830
20
1556.1154
0
VERTEX
8
1
10
10386.5381
20
1555.0275
0
VERTEX
8
1
10
10390.9308
20
1554.2340
0
VERTEX
8
1
10
10393.6487
20
1553.7483
0
VERTEX
8
1
10
10394.5797
20
1553.5834
0
VERTEX
8
1
10
10395.6351
20
1648.9861
0
VERTEX
8
1
10
10396.6197
20
1740.5087
0
VERTEX
8
1
10
10397.1100
20
1787.1400
0
VERTEX
8
1
10
10397.6900
20
1832.0200
0
VERTEX
8
1
10
10398.8400
20
1923.5400
0
VERTEX
8
1
10
10399.9700
20
2015.0500
0
VERTEX
8
1
10
10400.3831
20
2049.4220
0
SEQEND
0
TEXT
8
19
62
3
10
10389.4851
20
2026.8724
40
12.0000
50
240.7723
1
TR1/3_5
0
ENDBLK
0
BLOCK
2
Panel12
10
0
20
0
30
0
70
0
0
POLYLINE
8
1
62
1
66
1
6
CONTINUOUS
70
1
0
VERTEX
8
1
10
10370.6600
20
0.0400
0
VERTEX
8
1
10
10371.9700
20
85.1400
0
VERTEX
8
1
10
10373.2800
20
170.2400
0
VERTEX
8
1
10
10374.5900
20
255.3400
0
VERTEX
8
1
10
10375.9100
20
340.4400
0
VERTEX
8
1
10
10377.2200
20
425.5400
0
VERTEX
8
1
10
10378.5300
20
510.6400
0
VERTEX
8
1
10
10379.8400
20
595.7400
0
VERTEX
8
1
10
10380.9800
20
669.7600
0
VERTEX
8
1
10
10379.3172
20
669.7800
0
VERTEX
8
1
10
10374.4699
20
669.8178
0
VERTEX
8
1
10
10366.6499
20
669.8402
0
VERTEX
8
1
10
10356.0687
20
669.8140
0
VERTEX
8
1
10
10342.9381
20
669.7062
0
VERTEX
8
1
10
10327.4697
20
669.4833
0
VERTEX
8
1
10
10309.8752
20
669.1124
0
VERTEX
8
1
10
10290.3663
20
668.5602
0
VERTEX
8
1
10
10269.1547
20
667.7934
0
VERTEX
8
1
10
10246.4520
20
666.7790
0
VERTEX
8
1
10
10222.4699
20
665.4837
0
VERTEX
8
1
10
10197.4201
20
663.8744
0
VERTEX
8
1
10
10171.5143
20
661.9178
0
VERTEX
8
1
10
10144.9641
20
659.5808
0
VERTEX
8
1
10
10117.9812
20
656.8301
0
VERTEX
8
1
10
10090.7773
20
653.6327
0
VERTEX
8
1
10
10063.5641
20
649.9552
0
VERTEX
8
1
10
10060.6150
20
649.4977
0
VERTEX
8
1
10
10204.2797
20
-12.5436
0
VERTEX
8
1
10
10282.6743
20
-6.6772
0
VERTEX
8
1
10
10370.6600
20
0.0400
0
SEQEND
0
POLYLINE
8
8
62
8
66
1
6
CONTINUOUS
0
VERTEX
8
8
10
10070.5438
20
650.8984
0
VERTEX
8
8
10
10072.6644
20
641.1259
0
SEQEND
0
TEXT
8
19
62
3
10
10369.0454
20
25.0678
40
12.0000
50
89.1172
1
T1/1
0
ENDBLK
0
BLOCK
2
Panel13
10
0
20
0
30
0
70
0
0
POLYLINE
8
1
62
1
66
1
6
CONTINUOUS
70
1
0
VERTEX
8
1
10
10370.6600
20
0.0400
0
VERTEX
8
1
10
10371.9700
20
85.1400
0
VERTEX
8
1
10
10373.2800
20
170.2400
0
VERTEX
8
1
10
10374.5648
20
253.7023
0
VERTEX
8
1
10
10070.5438
20
650.8984
0
VERTEX
8
1
10
10063.5641
20
649.9552
0
VERTEX
8
1
10
10036.5533
20
645.7646
0
VERTEX
8
1
10
10009.9564
20
641.0276
0
VERTEX
8
1
10
9983.9853
20
635.7111
0
VERTEX
8
1
10
9983.9853
20
635.7111
0
VERTEX
8
1
10
9952.8903
20
628.2657
0
VERTEX
8
1
10
9923.1175
20
619.8490
0
VERTEX
8
1
10
9894.7002
20
610.4327
0
VERTEX
8
1
10
9867.6719
20
599.9886
0
VERTEX
8
1
10
9842.0658
20
588.4884
0
VERTEX
8
1
10
9817.9153
20
575.9040
0
VERTEX
8
1
10
9795.2538
20
562.2070
0
VERTEX
8
1
10
9774.1146
20
547.3693
0
VERTEX
8
1
10
9759.3497
20
535.3012
0
VERTEX
8
1
10
10180.0474
20
-14.3303
0
VERTEX
8
1
10
10195.2199
20
-13.2216
0
VERTEX
8
1
10
10282.6743
20
-6.6772
0
VERTEX
8
1
10
10370.6600
20
0.0400
0
SEQEND
0
POLYLINE
8
8
62
8
66
1
6
CONTINUOUS
0
VERTEX
8
8
10
9767.0964
20
541.6329
0
VERTEX
8
8
10
9773.1745
20
533.6921
0
SEQEND
0
TEXT
8
19
62
3
10
10357.7814
20
272.3388
40
12.0000
50
127.4311
1
T1/2
0
ENDBLK
0
BLOCK
2
Panel14
10
0
20
0
30
0
70
0
0
POLYLINE
8
1
62
1
66
1
6
CONTINUOUS
70
1
0
VERTEX
8
1
10
10370.6600
20
0.0400
0
VERTEX
8
1
10
10371.9700
20
85.1400
0
VERTEX
8
1
10
10373.2800
20
170.2400
0
VERTEX
8
1
10
10373.4876
20
183.7264
0
VERTEX
8
1
10
9767.0964
20
541.6329
0
VERTEX
8
1
10
9754.5310
20
531.3626
0
VERTEX
8
1
10
9736.5364
20
514.1586
0
VERTEX
8
1
10
9720.1642
20
495.7292
0
VERTEX
8
1
10
9705.4476
20
476.0462
0
VERTEX
8
1
10
9692.4201
20
455.0812
0
VERTEX
8
1
10
9681.1150
20
432.8060
0
VERTEX
8
1
10
9671.5656
20
409.1924
0
VERTEX
8
1
10
9663.8053
20
384.2123
0
VERTEX
8
1
10
9657.8674
20
357.8372
0
VERTEX
8
1
10
9653.7854
20
330.0391
0
VERTEX
8
1
10
9651.5924
20
300.7896
0
VERTEX
8
1
10
9651.3219
20
270.0606
0
VERTEX
8
1
10
9651.3219
20
270.0606
0
VERTEX
8
1
10
9652.1809
20
249.2459
0
VERTEX
8
1
10
9652.8374
20
240.5380
0
VERTEX
8
1
10
10095.1272
20
-20.5119
0
VERTEX
8
1
10
10108.2882
20
-19.5739
0
VERTEX
8
1
10
10195.2199
20
-13.2216
0
VERTEX
8
1
10
10282.6743
20
-6.6772
0
VERTEX
8
1
10
10370.6600
20
0.0400
0
SEQEND
0
POLYLINE
8
8
62
8
66
1
6
CONTINUOUS
0
VERTEX
8
8
10
9652.0417
20
252.6195
0
VERTEX
8
8
10
9660.6536
20
247.5366
0
SEQEND
0
TEXT
8
19
62
3
10
10350.9414
20
194.7114
40
12.0000
50
149.4499
1
T1/3
0
ENDBLK
0
BLOCK
2
Panel15
10
0
20
0
30
0
70
0
0
POLYLINE
8
1
62
1
66
1
6
CONTINUOUS
70
1
0
VERTEX
8
1
10
10370.6600
20
0.0400
0
VERTEX
8
1
10
10371.9700
20
85.1400
0
VERTEX
8
1
10
10373.2491
20
168.2298
0
VERTEX
8
1
10
9652.0417
20
252.6195
0
VERTEX
8
1
10
9652.1809
20
249.2459
0
VERTEX
8
1
10
9653.7858
20
227.9571
0
VERTEX
8
1
10
9656.0511
20
206.3607
0
VERTEX
8
1
10
9658.8915
20
184.6236
0
VERTEX
8
1
10
9662.2215
20
162.9125
0
VERTEX
8
1
10
9665.9557
20
141.3939
0
VERTEX
8
1
10
9670.0086
20
120.2347
0
VERTEX
8
1
10
9674.2950
20
99.6015
0
VERTEX
8
1
10
9678.7293
20
79.6609
0
VERTEX
8
1
10
9683.2261
20
60.5798
0
VERTEX
8
1
10
9687.7001
20
42.5248
0
VERTEX
8
1
10
9692.0657
20
25.6626
0
VERTEX
8
1
10
9696.2377
20
10.1599
0
VERTEX
8
1
10
9700.1305
20
-3.8166
0
VERTEX
8
1
10
9703.6588
20
-16.1002
0
VERTEX
8
1
10
9706.7371
20
-26.5243
0
VERTEX
8
1
10
9709.2800
20
-34.9221
0
VERTEX
8
1
10
9711.2021
20
-41.1269
0
VERTEX
8
1
10
9712.4180
20
-44.9720
0
VERTEX
8
1
10
9712.8423
20
-46.2907
0
VERTEX
8
1
10
9765.4123
20
-42.9930
0
VERTEX
8
1
10
9850.4249
20
-37.4538
0
VERTEX
8
1
10
9935.9125
20
-31.6945
0
VERTEX
8
1
10
10021.8514
20
-25.7347
0
VERTEX
8
1
10
10108.2882
20
-19.5739
0
VERTEX
8
1
10
10195.2199
20
-13.2216
0
VERTEX
8
1
10
10282.6743
20
-6.6772
0
VERTEX
8
1
10
10370.6600
20
0.0400
0
SEQEND
0
TEXT
8
19
62
3
10
10348.1860
20
169.1489
40
12.0000
50
173.3261
1
T1/4
0
ENDBLK
0
BLOCK
2
Panel16
10
0
20
0
30
0
70
0
0
POLYLINE
8
1
62
1
66
1
6
CONTINUOUS
70
1
0
VERTEX
8
1
10
5185.3300
20
135.8400
0
VERTEX
8
1
10
5243.8407
20
127.9499
0
VERTEX
8
1
10
5360.7916
20
112.5898
0
VERTEX
8
1
10
5477.6121
20
97.7797
0
VERTEX
8
1
10
5594.2922
20
83.5197
0
VERTEX
8
1
10
5710.7922
20
69.7997
0
VERTEX
8
1
10
5827.1124
20
56.6397
0
VERTEX
8
1
10
5943.2231
20
44.0296
0
VERTEX
8
1
10
6056.3549
20
32.2594
0
VERTEX
8
1
10
6057.7631
20
34.4494
0
VERTEX
8
1
10
6061.8093
20
40.8327
0
VERTEX
8
1
10
6068.2258
20
51.1293
0
VERTEX
8
1
10
6076.7448
20
65.0591
0
VERTEX
8
1
10
6087.0985
20
82.3422
0
VERTEX
8
1
10
6099.0194
20
102.6986
0
VERTEX
8
1
10
6112.2396
20
125.8483
0
VERTEX
8
1
10
6126.4914
20
151.5112
0
VERTEX
8
1
10
6141.5072
20
179.4073
0
VERTEX
8
1
10
6157.0191
20
209.2567
0
VERTEX
8
1
10
6172.7594
20
240.7792
0
VERTEX
8
1
10
6188.4605
20
273.6950
0
VERTEX
8
1
10
6195.0076
20
288.1676
0
VERTEX
8
1
10
5238.9234
20
277.0068
0
VERTEX
8
1
10
5217.4536
20
220.4320
0
VERTEX
8
1
10
5185.3300
20
135.8400
0
SEQEND
0
POLYLINE
8
8
62
8
66
1
6
CONTINUOUS
0
VERTEX
8
8
10
6190.4595
20
278.1139
0
VERTEX
8
8
10
6180.4601
20
277.9971
0
SEQEND
0
TEXT
8
19
62
3
10
5264.0851
20
263.2996
40
12.0000
50
360.6688
1
C1/1
0
ENDBLK
0
BLOCK
2
Panel17
10
0
20
0
30
0
70
0
0
POLYLINE
8
1
62
1
66
1
6
CONTINUOUS
70
1
0
VERTEX
8
1
10
5185.3300
20
135.8400
0
VERTEX
8
1
10
5243.8407
20
127.9499
0
VERTEX
8
1
10
5360.7916
20
112.5898
0
VERTEX
8
1
10
5477.6121
20
97.7797
0
VERTEX
8
1
10
5498.4790
20
95.2295
0
VERTEX
8
1
10
6190.4595
20
278.1139
0
VERTEX
8
1
10
6203.8545
20
307.7240
0
VERTEX
8
1
10
6218.6739
20
342.5862
0
VERTEX
8
1
10
6232.6507
20
378.0016
0
VERTEX
8
1
10
6245.5174
20
413.6901
0
VERTEX
8
1
10
6257.0062
20
449.3719
0
VERTEX
8
1
10
6266.8494
20
484.7668
0
VERTEX
8
1
10
6274.7792
20
519.5948
0
VERTEX
8
1
10
6280.5279
20
553.5760
0
VERTEX
8
1
10
6280.5279
20
553.5760
0
VERTEX
8
1
10
6281.8126
20
565.2606
0
VERTEX
8
1
10
5244.2495
20
291.0418
0
VERTEX
8
1
10
5217.4536
20
220.4320
0
VERTEX
8
1
10
5185.3300
20
135.8400
0
SEQEND
0
POLYLINE
8
8
62
8
66
1
6
CONTINUOUS
0
VERTEX
8
8
10
6280.6413
20
554.6077
0
VERTEX
8
8
10
6270.9733
20
552.0525
0
SEQEND
0
TEXT
8
19
62
3
10
5271.9969
20
283.8945
40
12.0000
50
14.8043
1
C1/2
0
ENDBLK
0
BLOCK
2
Panel18
10
0
20
0
30
0
70
0
0
POLYLINE
8
1
62
1
66
1
6
CONTINUOUS
70
1
0
VERTEX
8
1
10
5185.3300
20
135.8400
0
VERTEX
8
1
10
5243.8407
20
127.9499
0
VERTEX
8
1
10
5360.7916
20
112.5898
0
VERTEX
8
1
10
5399.9692
20
107.6230
0
VERTEX
8
1
10
6280.6413
20
554.6077
0
VERTEX
8
1
10
6283.3134
20
578.9112
0
VERTEX
8
1
10
6284.6677
20
603.5855
0
VERTEX
8
1
10
6284.5999
20
627.6013
0
VERTEX
8
1
10
6283.1194
20
650.9605
0
VERTEX
8
1
10
6280.2352
20
673.6652
0
VERTEX
8
1
10
6275.9568
20
695.7176
0
VERTEX
8
1
10
6270.2933
20
717.1197
0
VERTEX
8
1
10
6263.2539
20
737.8737
0
VERTEX
8
1
10
6254.8479
20
757.9817
0
VERTEX
8
1
10
6245.0846
20
777.4458
0
VERTEX
8
1
10
6233.9731
20
796.2680
0
VERTEX
8
1
10
6223.9108
20
810.9629
0
VERTEX
8
1
10
5254.9101
20
319.1470
0
VERTEX
8
1
10
5249.5364
20
304.9730
0
VERTEX
8
1
10
5217.4536
20
220.4320
0
VERTEX
8
1
10
5185.3300
20
135.8400
0
SEQEND
0
POLYLINE
8
8
62
8
66
1
6
CONTINUOUS
0
VERTEX
8
8
10
6229.6093
20
802.6408
0
VERTEX
8
8
10
6220.6921
20
798.1149
0
SEQEND
0
TEXT
8
19
62
3
10
5283.5393
20
317.9778
40
12.0000
50
26.9100
1
C1/3
0
ENDBLK
0
BLOCK
2
Panel19
10
0
20
0
30
0
70
0
0
POLYLINE
8
1
62
1
66
1
6
CONTINUOUS
70
1
0
VERTEX
8
1
10
5185.3300
20
135.8400
0
VERTEX
8
1
10
5243.8407
20
127.9499
0
VERTEX
8
1
10
5360.7916
20
112.5898
0
VERTEX
8
1
10
5361.6628
20
112.4793
0
VERTEX
8
1
10
6229.6093
20
802.6408
0
VERTEX
8
1
10
6221.5227
20
814.4505
0
VERTEX
8
1
10
6207.7426
20
831.9954
0
VERTEX
8
1
10
6192.6421
20
848.9048
0
VERTEX
8
1
10
6176.2304
20
865.1808
0
VERTEX
8
1
10
6158.5167
20
880.8256
0
VERTEX
8
1
10
6139.5103
20
895.8411
0
VERTEX
8
1
10
6119.2204
20
910.2295
0
VERTEX
8
1
10
6097.6563
20
923.9930
0
VERTEX
8
1
10
6074.8271
20
937.1336
0
VERTEX
8
1
10
6074.8271
20
937.1336
0
VERTEX
8
1
10
6044.1894
20
952.8775
0
VERTEX
8
1
10
6022.4829
20
962.8019
0
VERTEX
8
1
10
5272.9872
20
366.8285
0
VERTEX
8
1
10
5249.5364
20
304.9730
0
VERTEX
8
1
10
5217.4536
20
220.4320
0
VERTEX
8
1
10
5185.3300
20
135.8400
0
SEQEND
0
POLYLINE
8
8
62
8
66
1
6
CONTINUOUS
0
VERTEX
8
8
10
6032.6844
20
958.1377
0
VERTEX
8
8
10
6024.8572
20
951.9139
0
SEQEND
0
TEXT
8
19
62
3
10
5301.2684
20
371.4302
40
12.0000
50
38.4905
1
C1/4
0
ENDBLK
0
BLOCK
2
Panel20
10
0
20
0
30
0
70
0
0
POLYLINE
8
1
62
1
66
1
6
CONTINUOUS
70
1
0
VERTEX
8
1
10
5185.3300
20
135.8400
0
VERTEX
8
1
10
5243.8407
20
127.9499
0
VERTEX
8
1
10
5342.6702
20
114.9698
0
VERTEX
8
1
10
6032.6844
20
958.1377
0
VERTEX
8
1
10
6011.8898
20
967.6452
0
VERTEX
8
1
10
5978.2778
20
981.4551
0
VERTEX
8
1
10
5943.7031
20
994.3253
0
VERTEX
8
1
10
5908.5152
20
1006.2741
0
VERTEX
8
1
10
5873.0638
20
1017.3198
0
VERTEX
8
1
10
5837.6985
20
1027.4806
0
VERTEX
8
1
10
5802.7688
20
1036.7748
0
VERTEX
8
1
10
5774.2473
20
1043.8298
0
VERTEX
8
1
10
5318.4444
20
486.8580
0
VERTEX
8
1
10
5313.5506
20
473.9238
0
VERTEX
8
1
10
5281.5686
20
389.4635
0
VERTEX
8
1
10
5249.5364
20
304.9730
0
VERTEX
8
1
10
5217.4536
20
220.4320
0
VERTEX
8
1
10
5185.3300
20
135.8400
0
SEQEND
0
POLYLINE
8
8
62
8
66
1
6
CONTINUOUS
0
VERTEX
8
8
10
5784.9937
20
1041.1716
0
VERTEX
8
8
10
5778.6605
20
1033.4327
0
SEQEND
0
TEXT
8
19
62
3
10
5345.1119
20
497.3388
40
12.0000
50
50.7045
1
C1/5
0
ENDBLK
0
BLOCK
2
Panel21
10
0
20
0
30
0
70
0
0
POLYLINE
8
1
62
1
66
1
6
CONTINUOUS
70
1
0
VERTEX
8
1
10
5185.3300
20
135.8400
0
VERTEX
8
1
10
5243.8407
20
127.9499
0
VERTEX
8
1
10
5333.4708
20
116.1781
0
VERTEX
8
1
10
5784.9937
20
1041.1716
0
VERTEX
8
1
10
5768.6245
20
1045.2206
0
VERTEX
8
1
10
5735.6150
20
1052.8362
0
VERTEX
8
1
10
5704.0901
20
1059.6400
0
VERTEX
8
1
10
5674.3993
20
1065.6500
0
VERTEX
8
1
10
5646.8921
20
1070.8847
0
VERTEX
8
1
10
5621.9184
20
1075.3622
0
VERTEX
8
1
10
5599.8275
20
1079.1008
0
VERTEX
8
1
10
5580.9692
20
1082.1188
0
VERTEX
8
1
10
5565.6931
20
1084.4343
0
VERTEX
8
1
10
5554.3487
20
1086.0657
0
VERTEX
8
1
10
5547.2857
20
1087.0311
0
VERTEX
8
1
10
5544.8537
20
1087.3488
0
VERTEX
8
1
10
5536.3930
20
1064.8135
0
VERTEX
8
1
10
5504.6610
20
980.4010
0
VERTEX
8
1
10
5472.8991
20
895.9790
0
VERTEX
8
1
10
5441.0872
20
811.5474
0
VERTEX
8
1
10
5409.2453
20
727.1061
0
VERTEX
8
1
10
5377.3938
20
642.7350
0
VERTEX
8
1
10
5345.4923
20
558.3443
0
VERTEX
8
1
10
5313.5506
20
473.9238
0
VERTEX
8
1
10
5281.5686
20
389.4635
0
VERTEX
8
1
10
5249.5364
20
304.9730
0
VERTEX
8
1
10
5217.4536
20
220.4320
0
VERTEX
8
1
10
5185.3300
20
135.8400
0
SEQEND
0
TEXT
8
19
62
3
10
5207.2627
20
154.2779
40
12.0000
50
69.3011
1
C1/6
0
ENDBLK
0
BLOCK
2
Panel22
10
0
20
0
30
0
70
0
0
POLYLINE
8
1
62
1
66
1
6
CONTINUOUS
70
1
0
VERTEX
8
1
10
10261.7700
20
11916.9800
0
VERTEX
8
1
10
10218.4292
20
11832.2884
0
VERTEX
8
1
10
10175.0788
20
11747.6576
0
VERTEX
8
1
10
10131.7286
20
11663.0673
0
VERTEX
8
1
10
10088.3686
20
11578.5172
0
VERTEX
8
1
10
10045.0086
20
11494.0272
0
VERTEX
8
1
10
10001.6286
20
11409.5672
0
VERTEX
8
1
10
9958.2285
20
11325.1471
0
VERTEX
8
1
10
9914.8285
20
11240.7670
0
VERTEX
8
1
10
9871.3983
20
11156.4268
0
VERTEX
8
1
10
9827.9582
20
11072.1265
0
VERTEX
8
1
10
9784.4881
20
10987.8563
0
VERTEX
8
1
10
9740.9980
20
10903.6062
0
VERTEX
8
1
10
9697.4780
20
10819.3861
0
VERTEX
8
1
10
9662.7580
20
10752.2461
0
VERTEX
8
1
10
9664.0183
20
10750.7832
0
VERTEX
8
1
10
9667.7210
20
10746.5872
0
VERTEX
8
1
10
9673.7487
20
10739.9475
0
VERTEX
8
1
10
9681.9841
20
10731.1531
0
VERTEX
8
1
10
9692.3099
20
10720.4934
0
VERTEX
8
1
10
9704.6087
20
10708.2574
0
VERTEX
8
1
10
9718.7631
20
10694.7344
0
VERTEX
8
1
10
9734.6558
20
10680.2136
0
VERTEX
8
1
10
9752.1694
20
10664.9842
0
VERTEX
8
1
10
9771.1867
20
10649.3354
0
VERTEX
8
1
10
9791.5902
20
10633.5564
0
VERTEX
8
1
10
9813.2627
20
10617.9363
0
VERTEX
8
1
10
9834.6547
20
10603.7163
0
VERTEX
8
1
10
10377.3244
20
11906.4138
0
VERTEX
8
1
10
10376.7954
20
11918.9025
0
VERTEX
8
1
10
10261.7700
20
11916.9800
0
SEQEND
0
POLYLINE
8
8
62
8
66
1
6
CONTINUOUS
0
VERTEX
8
8
10
9826.1710
20
10609.3557
0
VERTEX
8
8
10
9830.0164
20
10618.5868
0
SEQEND
0
TEXT
8
19
62
3
10
10349.0192
20
11874.8731
40
12.0000
50
247.3847
1
H1/1
0
ENDBLK
0
BLOCK
2
Panel23
10
0
20
0
30
0
70
0
0
POLYLINE
8
1
62
1
66
1
6
CONTINUOUS
70
1
0
VERTEX
8
1
10
10261.7700
20
11916.9800
0
VERTEX
8
1
10
10218.4292
20
11832.2884
0
VERTEX
8
1
10
10175.0788
20
11747.6576
0
VERTEX
8
1
10
10131.7286
20
11663.0673
0
VERTEX
8
1
10
10088.3686
20
11578.5172
0
VERTEX
8
1
10
10066.9562
20
11536.7938
0
VERTEX
8
1
10
9825.9779
20
10609.4841
0
VERTEX
8
1
10
9836.0866
20
10602.7645
0
VERTEX
8
1
10
9859.9448
20
10588.3301
0
VERTEX
8
1
10
9884.7199
20
10574.9222
0
VERTEX
8
1
10
9910.2945
20
10562.8302
0
VERTEX
8
1
10
9936.5512
20
10552.3432
0
VERTEX
8
1
10
9963.3728
20
10543.7504
0
VERTEX
8
1
10
9990.6419
20
10537.3409
0
VERTEX
8
1
10
10018.2410
20
10533.4041
0
VERTEX
8
1
10
10018.2410
20
10533.4041
0
VERTEX
8
1
10
10029.2632
20
10532.9376
0
VERTEX
8
1
10
10378.5663
20
11877.0922
0
VERTEX
8
1
10
10376.7954
20
11918.9025
0
VERTEX
8
1
10
10261.7700
20
11916.9800
0
SEQEND
0
POLYLINE
8
8
62
8
66
1
6
CONTINUOUS
0
VERTEX
8
8
10
10019.0434
20
10533.3702
0
VERTEX
8
8
10
10021.5586
20
10543.0487
0
SEQEND
0
TEXT
8
19
62
3
10
10354.9558
20
11841.8993
40
12.0000
50
255.4329
1
H1/2
0
ENDBLK
0
BLOCK
2
Panel24
10
0
20
0
30
0
70
0
0
POLYLINE
8
1
62
1
66
1
6
CONTINUOUS
70
1
0
VERTEX
8
1
10
10261.7700
20
11916.9800
0
VERTEX
8
1
10
10218.4292
20
11832.2884
0
VERTEX
8
1
10
10175.0788
20
11747.6576
0
VERTEX
8
1
10
10144.5625
20
11688.1104
0
VERTEX
8
1
10
10019.0434
20
10533.3702
0
VERTEX
8
1
10
10047.9271
20
10532.1477
0
VERTEX
8
1
10
10077.6835
20
10533.7371
0
VERTEX
8
1
10
10107.3378
20
10537.8716
0
VERTEX
8
1
10
10136.7179
20
10544.2504
0
VERTEX
8
1
10
10165.6516
20
10552.5727
0
VERTEX
8
1
10
10193.9667
20
10562.5379
0
VERTEX
8
1
10
10221.4909
20
10573.8451
0
VERTEX
8
1
10
10241.7417
20
10583.2598
0
VERTEX
8
1
10
10379.6356
20
11851.8457
0
VERTEX
8
1
10
10376.7954
20
11918.9025
0
VERTEX
8
1
10
10261.7700
20
11916.9800
0
SEQEND
0
POLYLINE
8
8
62
8
66
1
6
CONTINUOUS
0
VERTEX
8
8
10
10231.1474
20
10578.3344
0
VERTEX
8
8
10
10232.2280
20
10588.2759
0
SEQEND
0
TEXT
8
19
62
3
10
10361.3951
20
11813.5928
40
12.0000
50
263.7964
1
H1/3
0
ENDBLK
0
BLOCK
2
Panel25
10
0
20
0
30
0
70
0
0
POLYLINE
8
1
62
1
66
1
6
CONTINUOUS
70
1
0
VERTEX
8
1
10
10261.7700
20
11916.9800
0
VERTEX
8
1
10
10218.4292
20
11832.2884
0
VERTEX
8
1
10
10175.0788
20
11747.6576
0
VERTEX
8
1
10
10174.1671
20
11745.8785
0
VERTEX
8
1
10
10231.1474
20
10578.3344
0
VERTEX
8
1
10
10248.0521
20
10586.1935
0
VERTEX
8
1
10
10273.4780
20
10599.2825
0
VERTEX
8
1
10
10297.5964
20
10612.8111
0
VERTEX
8
1
10
10320.2352
20
10626.4788
0
VERTEX
8
1
10
10341.2221
20
10639.9847
0
VERTEX
8
1
10
10360.3849
20
10653.0280
0
VERTEX
8
1
10
10377.5514
20
10665.3081
0
VERTEX
8
1
10
10392.5493
20
10676.5240
0
VERTEX
8
1
10
10405.2065
20
10686.3752
0
VERTEX
8
1
10
10415.3508
20
10694.5607
0
VERTEX
8
1
10
10422.8099
20
10700.7799
0
VERTEX
8
1
10
10427.4117
20
10704.7320
0
VERTEX
8
1
10
10428.9839
20
10706.1162
0
VERTEX
8
1
10
10426.0754
20
10773.8525
0
VERTEX
8
1
10
10421.9537
20
10869.2763
0
VERTEX
8
1
10
10417.8319
20
10964.7001
0
VERTEX
8
1
10
10413.7005
20
11060.1136
0
VERTEX
8
1
10
10409.5687
20
11155.5371
0
VERTEX
8
1
10
10405.4370
20
11250.9606
0
VERTEX
8
1
10
10401.3055
20
11346.3741
0
VERTEX
8
1
10
10397.1837
20
11441.7978
0
VERTEX
8
1
10
10393.0720
20
11537.2218
0
VERTEX
8
1
10
10388.9805
20
11632.6364
0
VERTEX
8
1
10
10384.8987
20
11728.0613
0
VERTEX
8
1
10
10380.8372
20
11823.4766
0
VERTEX
8
1
10
10376.7954
20
11918.9025
0
VERTEX
8
1
10
10261.7700
20
11916.9800
0
SEQEND
0
TEXT
8
19
62
3
10
10364.5281
20
11878.3376
40
12.0000
50
272.4640
1
H1/4
0
ENDBLK
0
BLOCK
2
Panel26
10
0
20
0
30
0
70
0
0
POLYLINE
8
1
62
1
66
1
6
CONTINUOUS
70
1
0
VERTEX
8
1
10
10414.9600
20
3574.5700
0
VERTEX
8
1
10
10415.3000
20
3621.9500
0
VERTEX
8
1
10
10415.9500
20
3717.0500
0
VERTEX
8
1
10
10416.5800
20
3812.1500
0
VERTEX
8
1
10
10417.1800
20
3907.2400
0
VERTEX
8
1
10
10417.7500
20
4002.3400
0
VERTEX
8
1
10
10418.3000
20
4097.4400
0
VERTEX
8
1
10
10418.5500
20
4142.0700
0
VERTEX
8
1
10
10417.4727
20
4142.0921
0
VERTEX
8
1
10
10414.3312
20
4142.1364
0
VERTEX
8
1
10
10409.2606
20
4142.1702
0
VERTEX
8
1
10
10402.3964
20
4142.1606
0
VERTEX
8
1
10
10393.8739
20
4142.0748
0
VERTEX
8
1
10
10383.8283
20
4141.8800
0
VERTEX
8
1
10
10372.3951
20
4141.5434
0
VERTEX
8
1
10
10359.7095
20
4141.0322
0
VERTEX
8
1
10
10345.9069
20
4140.3135
0
VERTEX
8
1
10
10331.1225
20
4139.3546
0
VERTEX
8
1
10
10315.4918
20
4138.1226
0
VERTEX
8
1
10
10299.1500
20
4136.5848
0
VERTEX
8
1
10
10282.2325
20
4134.7082
0
VERTEX
8
1
10
10264.8745
20
4132.4601
0
VERTEX
8
1
10
10247.2115
20
4129.8077
0
VERTEX
8
1
10
10229.3786
20
4126.7182
0
VERTEX
8
1
10
10211.5114
20
4123.1587
0
VERTEX
8
1
10
10193.7450
20
4119.0964
0
VERTEX
8
1
10
10176.2148
20
4114.4985
0
VERTEX
8
1
10
10159.0562
20
4109.3323
0
VERTEX
8
1
10
10159.0562
20
4109.3323
0
VERTEX
8
1
10
10122.4644
20
4095.6553
0
VERTEX
8
1
10
10116.3467
20
4092.7027
0
VERTEX
8
1
10
10245.9363
20
3578.5030
0
VERTEX
8
1
10
10258.2599
20
3578.2102
0
VERTEX
8
1
10
10309.8165
20
3576.9986
0
VERTEX
8
1
10
10362.0334
20
3575.7854
0
VERTEX
8
1
10
10414.9600
20
3574.5700
0
SEQEND
0
POLYLINE
8
8
62
8
66
1
6
CONTINUOUS
0
VERTEX
8
8
10
10125.6182
20
4096.8341
0
VERTEX
8
8
10
10128.0620
20
4087.1373
0
SEQEND
0
TEXT
8
19
62
3
10
10413.6182
20
3599.5790
40
12.0000
50
89.6376
1
TR2/3_1
0
ENDBLK
0
BLOCK
2
Panel27
10
0
20
0
30
0
70
0
0
POLYLINE
8
1
62
1
66
1
6
CONTINUOUS
70
1
0
VERTEX
8
1
10
10414.9600
20
3574.5700
0
VERTEX
8
1
10
10415.3000
20
3621.9500
0
VERTEX
8
1
10
10415.9500
20
3717.0500
0
VERTEX
8
1
10
10416.3864
20
3782.9212
0
VERTEX
8
1
10
10125.6182
20
4096.8341
0
VERTEX
8
1
10
10122.4644
20
4095.6553
0
VERTEX
8
1
10
10088.3977
20
4079.2138
0
VERTEX
8
1
10
10056.8461
20
4060.2505
0
VERTEX
8
1
10
10027.7994
20
4039.0080
0
VERTEX
8
1
10
10001.2478
20
4015.7289
0
VERTEX
8
1
10
9977.1812
20
3990.6556
0
VERTEX
8
1
10
9955.5895
20
3964.0309
0
VERTEX
8
1
10
9936.4628
20
3936.0973
0
VERTEX
8
1
10
9919.7911
20
3907.0974
0
VERTEX
8
1
10
9908.1292
20
3882.6504
0
VERTEX
8
1
10
10188.5856
20
3579.8702
0
VERTEX
8
1
10
10207.3076
20
3579.4207
0
VERTEX
8
1
10
10258.2599
20
3578.2102
0
VERTEX
8
1
10
10309.8165
20
3576.9986
0
VERTEX
8
1
10
10362.0334
20
3575.7854
0
VERTEX
8
1
10
10414.9600
20
3574.5700
0
SEQEND
0
POLYLINE
8
8
62
8
66
1
6
CONTINUOUS
0
VERTEX
8
8
10
9912.7628
20
3892.3638
0
VERTEX
8
8
10
9919.5582
20
3885.0275
0
SEQEND
0
TEXT
8
19
62
3
10
10398.2973
20
3800.2428
40
12.0000
50
132.8080
1
TR2/3_2
0
ENDBLK
0
BLOCK
2
Panel28
10
0
20
0
30
0
70
0
0
POLYLINE
8
1
62
1
66
1
6
CONTINUOUS
70
1
0
VERTEX
8
1
10
10414.9600
20
3574.5700
0
VERTEX
8
1
10
10415.3000
20
3621.9500
0
VERTEX
8
1
10
10415.9500
20
3717.0500
0
VERTEX
8
1
10
10416.0013
20
3724.8004
0
VERTEX
8
1
10
9912.7628
20
3892.3638
0
VERTEX
8
1
10
9905.5644
20
3877.2737
0
VERTEX
8
1
10
9893.7726
20
3846.8690
0
VERTEX
8
1
10
9884.4057
20
3816.1257
0
VERTEX
8
1
10
9877.4538
20
3785.2864
0
VERTEX
8
1
10
9872.9068
20
3754.5938
0
VERTEX
8
1
10
9870.7547
20
3724.2903
0
VERTEX
8
1
10
9870.9874
20
3694.6187
0
VERTEX
8
1
10
9873.5951
20
3665.8215
0
VERTEX
8
1
10
9878.5677
20
3638.1412
0
VERTEX
8
1
10
9885.8951
20
3611.8205
0
VERTEX
8
1
10
9895.5674
20
3587.1020
0
VERTEX
8
1
10
9911.6402
20
3586.6899
0
VERTEX
8
1
10
9959.9137
20
3585.4755
0
VERTEX
8
1
10
10008.5423
20
3584.2628
0
VERTEX
8
1
10
10057.5606
20
3583.0514
0
VERTEX
8
1
10
10107.0027
20
3581.8408
0
VERTEX
8
1
10
10156.9055
20
3580.6308
0
VERTEX
8
1
10
10207.3076
20
3579.4207
0
VERTEX
8
1
10
10258.2599
20
3578.2102
0
VERTEX
8
1
10
10309.8165
20
3576.9986
0
VERTEX
8
1
10
10362.0334
20
3575.7854
0
VERTEX
8
1
10
10414.9600
20
3574.5700
0
SEQEND
0
POLYLINE
8
8
62
8
66
1
6
CONTINUOUS
0
VERTEX
8
8
10
9891.6160
20
3597.2003
0
VERTEX
8
8
10
9901.6131
20
3596.9590
0
SEQEND
0
TEXT
8
19
62
3
10
10391.8078
20
3731.2752
40
12.0000
50
161.5838
1
TR2/3_3
0
ENDBLK
0
BLOCK
2
Panel29
10
0
20
0
30
0
70
0
0
POLYLINE
8
1
62
1
66
1
6
CONTINUOUS
70
1
0
VERTEX
8
1
10
10414.2422
20
3439.4711
0
VERTEX
8
1
10
10414.7170
20
3526.8594
0
VERTEX
8
1
10
10414.9600
20
3574.5700
0
VERTEX
8
1
10
10415.3000
20
3621.9500
0
VERTEX
8
1
10
10415.8550
20
3703.1520
0
VERTEX
8
1
10
9891.6160
20
3597.2003
0
VERTEX
8
1
10
9895.5674
20
3587.1020
0
VERTEX
8
1
10
9895.5674
20
3587.1020
0
VERTEX
8
1
10
9902.5520
20
3573.0170
0
VERTEX
8
1
10
9910.3894
20
3559.5814
0
VERTEX
8
1
10
9919.0783
20
3546.7697
0
VERTEX
8
1
10
9928.6171
20
3534.5564
0
VERTEX
8
1
10
9939.0045
20
3522.9159
0
VERTEX
8
1
10
9950.2390
20
3511.8227
0
VERTEX
8
1
10
9962.3191
20
3501.2512
0
VERTEX
8
1
10
9975.2436
20
3491.1760
0
VERTEX
8
1
10
9989.0108
20
3481.5715
0
VERTEX
8
1
10
10003.6195
20
3472.4122
0
VERTEX
8
1
10
10019.0681
20
3463.6725
0
VERTEX
8
1
10
10035.3553
20
3455.3269
0
VERTEX
8
1
10
10052.4795
20
3447.3499
0
VERTEX
8
1
10
10070.4395
20
3439.7160
0
VERTEX
8
1
10
10089.2337
20
3432.3996
0
VERTEX
8
1
10
10108.8607
20
3425.3752
0
VERTEX
8
1
10
10129.3191
20
3418.6173
0
VERTEX
8
1
10
10150.6074
20
3412.1003
0
VERTEX
8
1
10
10172.7243
20
3405.7987
0
VERTEX
8
1
10
10195.6683
20
3399.6870
0
VERTEX
8
1
10
10195.6683
20
3399.6870
0
VERTEX
8
1
10
10205.3145
20
3397.2456
0
VERTEX
8
1
10
10414.2422
20
3439.4711
0
SEQEND
0
POLYLINE
8
8
62
8
66
1
6
CONTINUOUS
0
VERTEX
8
8
10
10183.2639
20
3402.9912
0
VERTEX
8
8
10
10193.0657
20
3404.9722
0
SEQEND
0
TEXT
8
19
62
3
10
10391.6476
20
3696.7292
40
12.0000
50
191.4259
1
TR2/3_4
0
ENDBLK
0
BLOCK
2
Panel30
10
0
20
0
30
0
70
0
0
POLYLINE
8
1
62
1
66
1
6
CONTINUOUS
70
1
0
VERTEX
8
1
10
10416.6435
20
3822.2194
0
VERTEX
8
1
10
10183.2639
20
3402.9912
0
VERTEX
8
1
10
10195.6683
20
3399.6870
0
VERTEX
8
1
10
10195.6683
20
3399.6870
0
VERTEX
8
1
10
10210.5316
20
3395.9252
0
VERTEX
8
1
10
10225.6163
20
3392.2411
0
VERTEX
8
1
10
10240.8160
20
3388.6472
0
VERTEX
8
1
10
10256.0245
20
3385.1559
0
VERTEX
8
1
10
10271.1353
20
3381.7797
0
VERTEX
8
1
10
10286.0421
20
3378.5310
0
VERTEX
8
1
10
10300.6385
20
3375.4223
0
VERTEX
8
1
10
10314.8181
20
3372.4661
0
VERTEX
8
1
10
10328.4746
20
3369.6748
0
VERTEX
8
1
10
10341.5017
20
3367.0608
0
VERTEX
8
1
10
10353.7928
20
3364.6367
0
VERTEX
8
1
10
10365.2418
20
3362.4148
0
VERTEX
8
1
10
10375.7421
20
3360.4077
0
VERTEX
8
1
10
10385.1876
20
3358.6278
0
VERTEX
8
1
10
10393.4716
20
3357.0876
0
VERTEX
8
1
10
10400.4881
20
3355.7994
0
VERTEX
8
1
10
10406.1304
20
3354.7758
0
VERTEX
8
1
10
10410.2924
20
3354.0293
0
VERTEX
8
1
10
10412.8676
20
3353.5722
0
VERTEX
8
1
10
10413.7496
20
3353.4171
0
VERTEX
8
1
10
10414.2003
20
3431.7582
0
VERTEX
8
1
10
10414.7170
20
3526.8594
0
VERTEX
8
1
10
10414.9600
20
3574.5700
0
VERTEX
8
1
10
10415.3000
20
3621.9500
0
VERTEX
8
1
10
10415.9500
20
3717.0500
0
VERTEX
8
1
10
10416.5800
20
3812.1500
0
VERTEX
8
1
10
10416.6435
20
3822.2194
0
SEQEND
0
TEXT
8
19
62
3
10
10405.7942
20
3799.6464
40
12.0000
50
240.8958
1
TR2/3_5
0
ENDBLK
0
BLOCK
2
Panel31
10
0
20
0
30
0
70
0
0
POLYLINE
8
1
62
1
66
1
6
CONTINUOUS
70
1
0
VERTEX
8
1
10
6517.8100
20
3676.6400
0
VERTEX
8
1
10
6550.8819
20
3766.4835
0
VERTEX
8
1
10
6584.3828
20
3857.6337
0
VERTEX
8
1
10
6617.8632
20
3948.8033
0
VERTEX
8
1
10
6651.3035
20
4039.9720
0
VERTEX
8
1
10
6684.7034
20
4131.1701
0
VERTEX
8
1
10
6718.0733
20
4222.3679
0
VERTEX
8
1
10
6751.4129
20
4313.5956
0
VERTEX
8
1
10
6783.2660
20
4400.8693
0
VERTEX
8
1
10
6784.5432
20
4400.7468
0
VERTEX
8
1
10
6788.2618
20
4400.3664
0
VERTEX
8
1
10
6794.2523
20
4399.7083
0
VERTEX
8
1
10
6802.3452
20
4398.7529
0
VERTEX
8
1
10
6812.3709
20
4397.4807
0
VERTEX
8
1
10
6824.1599
20
4395.8719
0
VERTEX
8
1
10
6837.5428
20
4393.9069
0
VERTEX
8
1
10
6852.3499
20
4391.5661
0
VERTEX
8
1
10
6868.4117
20
4388.8299
0
VERTEX
8
1
10
6885.5588
20
4385.6786
0
VERTEX
8
1
10
6903.6216
20
4382.0926
0
VERTEX
8
1
10
6922.4305
20
4378.0522
0
VERTEX
8
1
10
6941.8161
20
4373.5378
0
VERTEX
8
1
10
6961.6089
20
4368.5298
0
VERTEX
8
1
10
6981.6392
20
4363.0086
0
VERTEX
8
1
10
7001.7376
20
4356.9544
0
VERTEX
8
1
10
7021.7346
20
4350.3477
0
VERTEX
8
1
10
7041.4606
20
4343.1689
0
VERTEX
8
1
10
7053.6083
20
4338.2742
0
VERTEX
8
1
10
6688.9524
20
3671.5485
0
VERTEX
8
1
10
6641.5463
20
3672.9595
0
VERTEX
8
1
10
6579.6894
20
3674.7997
0
VERTEX
8
1
10
6517.8100
20
3676.6400
0
SEQEND
0
POLYLINE
8
8
62
8
66
1
6
CONTINUOUS
0
VERTEX
8
8
10
7044.2685
20
4342.0375
0
VERTEX
8
8
10
7039.4700
20
4333.2640
0
SEQEND
0
TEXT
8
19
62
3
10
6539.0890
20
3695.4669
40
12.0000
50
69.8703
1
CR2/1_1
0
ENDBLK
0
BLOCK
2
Panel32
10
0
20
0
30
0
70
0
0
POLYLINE
8
1
62
1
66
1
6
CONTINUOUS
70
1
0
VERTEX
8
1
10
6517.8100
20
3676.6400
0
VERTEX
8
1
10
6550.8819
20
3766.4835
0
VERTEX
8
1
10
6584.3828
20
3857.6337
0
VERTEX
8
1
10
6608.6900
20
3923.8241
0
VERTEX
8
1
10
7044.2685
20
4342.0375
0
VERTEX
8
1
10
7060.7461
20
4335.3982
0
VERTEX
8
1
10
7079.4216
20
4327.0161
0
VERTEX
8
1
10
7079.4216
20
4327.0161
0
VERTEX
8
1
10
7118.9256
20
4305.7473
0
VERTEX
8
1
10
7154.5291
20
4281.5172
0
VERTEX
8
1
10
7186.3319
20
4254.6029
0
VERTEX
8
1
10
7214.4340
20
4225.2818
0
VERTEX
8
1
10
7238.9352
20
4193.8311
0
VERTEX
8
1
10
7252.8155
20
4171.8192
0
VERTEX
8
1
10
6730.4844
20
3670.3119
0
VERTEX
8
1
10
6703.3706
20
3671.1194
0
VERTEX
8
1
10
6641.5463
20
3672.9595
0
VERTEX
8
1
10
6579.6894
20
3674.7997
0
VERTEX
8
1
10
6517.8100
20
3676.6400
0
SEQEND
0
POLYLINE
8
8
62
8
66
1
6
CONTINUOUS
0
VERTEX
8
8
10
7247.3704
20
4180.4543
0
VERTEX
8
8
10
7240.1570
20
4173.5285
0
SEQEND
0
TEXT
8
19
62
3
10
6636.0733
20
3931.4005
40
12.0000
50
43.8348
1
CR2/1_2
0
ENDBLK
0
BLOCK
2
Panel33
10
0
20
0
30
0
70
0
0
POLYLINE
8
1
62
1
66
1
6
CONTINUOUS
70
1
0
VERTEX
8
1
10
6517.8100
20
3676.6400
0
VERTEX
8
1
10
6550.8819
20
3766.4835
0
VERTEX
8
1
10
6575.7561
20
3834.1620
0
VERTEX
8
1
10
7247.3704
20
4180.4543
0
VERTEX
8
1
10
7259.9355
20
4160.5280
0
VERTEX
8
1
10
7277.5348
20
4125.6496
0
VERTEX
8
1
10
7291.8329
20
4089.4734
0
VERTEX
8
1
10
7302.9297
20
4052.2764
0
VERTEX
8
1
10
7310.9252
20
4014.3358
0
VERTEX
8
1
10
7315.9192
20
3975.9291
0
VERTEX
8
1
10
7318.0116
20
3937.3333
0
VERTEX
8
1
10
7317.6192
20
3916.0244
0
VERTEX
8
1
10
6835.0323
20
3667.1969
0
VERTEX
8
1
10
6826.9040
20
3667.4393
0
VERTEX
8
1
10
6765.1530
20
3669.2793
0
VERTEX
8
1
10
6703.3706
20
3671.1194
0
VERTEX
8
1
10
6641.5463
20
3672.9595
0
VERTEX
8
1
10
6579.6894
20
3674.7997
0
VERTEX
8
1
10
6517.8100
20
3676.6400
0
SEQEND
0
POLYLINE
8
8
62
8
66
1
6
CONTINUOUS
0
VERTEX
8
8
10
7317.8284
20
3927.3833
0
VERTEX
8
8
10
7308.9403
20
3922.8005
0
SEQEND
0
TEXT
8
19
62
3
10
6604.1631
20
3833.6201
40
12.0000
50
27.2762
1
CR2/1_3
0
ENDBLK
0
BLOCK
2
Panel34
10
0
20
0
30
0
70
0
0
POLYLINE
8
1
62
1
66
1
6
CONTINUOUS
70
1
0
VERTEX
8
1
10
6517.8100
20
3676.6400
0
VERTEX
8
1
10
6550.8819
20
3766.4835
0
VERTEX
8
1
10
6563.3608
20
3800.4365
0
VERTEX
8
1
10
7317.8284
20
3927.3833
0
VERTEX
8
1
10
7317.3024
20
3898.8256
0
VERTEX
8
1
10
7313.8914
20
3860.6834
0
VERTEX
8
1
10
7307.8785
20
3823.1838
0
VERTEX
8
1
10
7299.3636
20
3786.6041
0
VERTEX
8
1
10
7288.4467
20
3751.2215
0
VERTEX
8
1
10
7275.2275
20
3717.3132
0
VERTEX
8
1
10
7259.8061
20
3685.1564
0
VERTEX
8
1
10
7242.2823
20
3655.0284
0
VERTEX
8
1
10
7196.6115
20
3656.3988
0
VERTEX
8
1
10
7135.0924
20
3658.2390
0
VERTEX
8
1
10
7073.5374
20
3660.0792
0
VERTEX
8
1
10
7011.9349
20
3661.9193
0
VERTEX
8
1
10
6950.2942
20
3663.7593
0
VERTEX
8
1
10
6888.6141
20
3665.5993
0
VERTEX
8
1
10
6826.9040
20
3667.4393
0
VERTEX
8
1
10
6765.1530
20
3669.2793
0
VERTEX
8
1
10
6703.3706
20
3671.1194
0
VERTEX
8
1
10
6641.5463
20
3672.9595
0
VERTEX
8
1
10
6579.6894
20
3674.7997
0
VERTEX
8
1
10
6517.8100
20
3676.6400
0
SEQEND
0
POLYLINE
8
8
62
8
66
1
6
CONTINUOUS
0
VERTEX
8
8
10
7248.0021
20
3664.8623
0
VERTEX
8
8
10
7238.0065
20
3665.1604
0
SEQEND
0
TEXT
8
19
62
3
10
6590.2543
20
3791.2719
40
12.0000
50
9.5511
1
CR2/1_4
0
ENDBLK
0
BLOCK
2
Panel35
10
0
20
0
30
0
70
0
0
POLYLINE
8
1
62
1
66
1
6
CONTINUOUS
70
1
0
VERTEX
8
1
10
6448.5810
20
3497.7469
0
VERTEX
8
1
10
6482.2700
20
3584.7600
0
VERTEX
8
1
10
6517.8100
20
3676.6400
0
VERTEX
8
1
10
6550.8819
20
3766.4835
0
VERTEX
8
1
10
6580.3571
20
3846.6807
0
VERTEX
8
1
10
7248.0021
20
3664.8623
0
VERTEX
8
1
10
7242.2823
20
3655.0284
0
VERTEX
8
1
10
7242.2823
20
3655.0284
0
VERTEX
8
1
10
7234.6561
20
3643.5343
0
VERTEX
8
1
10
7226.6972
20
3632.4101
0
VERTEX
8
1
10
7218.3975
20
3621.6525
0
VERTEX
8
1
10
7209.7486
20
3611.2578
0
VERTEX
8
1
10
7200.7423
20
3601.2227
0
VERTEX
8
1
10
7191.3704
20
3591.5436
0
VERTEX
8
1
10
7181.6245
20
3582.2169
0
VERTEX
8
1
10
7171.4965
20
3573.2392
0
VERTEX
8
1
10
7160.9781
20
3564.6069
0
VERTEX
8
1
10
7150.0609
20
3556.3166
0
VERTEX
8
1
10
7138.7369
20
3548.3646
0
VERTEX
8
1
10
7126.9976
20
3540.7476
0
VERTEX
8
1
10
7114.8350
20
3533.4620
0
VERTEX
8
1
10
7102.2406
20
3526.5043
0
VERTEX
8
1
10
7089.2062
20
3519.8709
0
VERTEX
8
1
10
7075.7237
20
3513.5584
0
VERTEX
8
1
10
7061.7847
20
3507.5633
0
VERTEX
8
1
10
7047.3809
20
3501.8820
0
VERTEX
8
1
10
7032.5042
20
3496.5110
0
VERTEX
8
1
10
7017.1463
20
3491.4468
0
VERTEX
8
1
10
7017.1463
20
3491.4468
0
VERTEX
8
1
10
6982.9445
20
3481.6774
0
VERTEX
8
1
10
6946.9183
20
3473.1934
0
VERTEX
8
1
10
6909.4545
20
3465.9100
0
VERTEX
8
1
10
6870.9402
20
3459.7423
0
VERTEX
8
1
10
6831.7624
20
3454.6056
0
VERTEX
8
1
10
6792.3078
20
3450.4150
0
VERTEX
8
1
10
6752.9635
20
3447.0857
0
VERTEX
8
1
10
6714.1164
20
3444.5329
0
VERTEX
8
1
10
6676.1535
20
3442.6718
0
VERTEX
8
1
10
6653.6447
20
3441.9023
0
VERTEX
8
1
10
6448.5810
20
3497.7469
0
SEQEND
0
POLYLINE
8
8
62
8
66
1
6
CONTINUOUS
0
VERTEX
8
8
10
6686.9358
20
3443.2004
0
VERTEX
8
8
10
6677.2872
20
3445.8280
0
SEQEND
0
TEXT
8
19
62
3
10
6600.9314
20
3827.0861
40
12.0000
50
344.7662
1
CR2/1_5
0
ENDBLK
0
BLOCK
2
Panel36
10
0
20
0
30
0
70
0
0
POLYLINE
8
1
62
1
66
1
6
CONTINUOUS
70
1
0
VERTEX
8
1
10
6698.0447
20
4167.6311
0
VERTEX
8
1
10
6686.9358
20
3443.2004
0
VERTEX
8
1
10
6676.1535
20
3442.6718
0
VERTEX
8
1
10
6639.4616
20
3441.4174
0
VERTEX
8
1
10
6604.4278
20
3440.6851
0
VERTEX
8
1
10
6571.4390
20
3440.3900
0
VERTEX
8
1
10
6540.8820
20
3440.4473
0
VERTEX
8
1
10
6513.1439
20
3440.7722
0
VERTEX
8
1
10
6488.6116
20
3441.2797
0
VERTEX
8
1
10
6467.6721
20
3441.8852
0
VERTEX
8
1
10
6450.7122
20
3442.5038
0
VERTEX
8
1
10
6438.1189
20
3443.0507
0
VERTEX
8
1
10
6430.2792
20
3443.4410
0
VERTEX
8
1
10
6427.5800
20
3443.5899
0
VERTEX
8
1
10
6447.2000
20
3494.1800
0
VERTEX
8
1
10
6482.2700
20
3584.7600
0
VERTEX
8
1
10
6517.8100
20
3676.6400
0
VERTEX
8
1
10
6550.8819
20
3766.4835
0
VERTEX
8
1
10
6584.3828
20
3857.6337
0
VERTEX
8
1
10
6617.8632
20
3948.8033
0
VERTEX
8
1
10
6651.3035
20
4039.9720
0
VERTEX
8
1
10
6684.7034
20
4131.1701
0
VERTEX
8
1
10
6698.0447
20
4167.6311
0
SEQEND
0
TEXT
8
19
62
3
10
6684.1630
20
4142.8411
40
12.0000
50
269.1215
1
CR2/1_6
0
ENDBLK
0
ENDSEC
0
SECTION
2
ENTITIES
0
INSERT
2
Panel1
8
0
10
0
20
0
30
0
0
INSERT
2
Panel2
8
0
10
0
20
0
30
0
0
INSERT
2
Panel3
8
0
10
0
20
0
30
0
0
INSERT
2
Panel4
8
0
10
0
20
0
30
0
0
INSERT
2
Panel5
8
0
10
0
20
0
30
0
0
INSERT
2
Panel6
8
0
10
0
20
0
30
0
0
INSERT
2
Panel7
8
0
10
0
20
0
30
0
0
INSERT
2
Panel8
8
0
10
0
20
0
30
0
0
INSERT
2
Panel9
8
0
10
0
20
0
30
0
0
INSERT
2
Panel10
8
0
10
0
20
0
30
0
0
INSERT
2
Panel11
8
0
10
0
20
0
30
0
0
INSERT
2
Panel12
8
0
10
0
20
0
30
0
0
INSERT
2
Panel13
8
0
10
0
20
0
30
0
0
INSERT
2
Panel14
8
0
10
0
20
0
30
0
0
INSERT
2
Panel15
8
0
10
0
20
0
30
0
0
INSERT
2
Panel16
8
0
10
0
20
0
30
0
0
INSERT
2
Panel17
8
0
10
0
20
0
30
0
0
INSERT
2
Panel18
8
0
10
0
20
0
30
0
0
INSERT
2
Panel19
8
0
10
0
20
0
30
0
0
INSERT
2
Panel20
8
0
10
0
20
0
30
0
0
INSERT
2
Panel21
8
0
10
0
20
0
30
0
0
INSERT
2
Panel22
8
0
10
0
20
0
30
0
0
INSERT
2
Panel23
8
0
10
0
20
0
30
0
0
INSERT
2
Panel24
8
0
10
0
20
0
30
0
0
INSERT
2
Panel25
8
0
10
0
20
0
30
0
0
INSERT
2
Panel26
8
0
10
0
20
0
30
0
0
INSERT
2
Panel27
8
0
10
0
20
0
30
0
0
INSERT
2
Panel28
8
0
10
0
20
0
30
0
0
INSERT
2
Panel29
8
0
10
0
20
0
30
0
0
INSERT
2
Panel30
8
0
10
0
20
0
30
0
0
INSERT
2
Panel31
8
0
10
0
20
0
30
0
0
INSERT
2
Panel32
8
0
10
0
20
0
30
0
0
INSERT
2
Panel33
8
0
10
0
20
0
30
0
0
INSERT
2
Panel34
8
0
10
0
20
0
30
0
0
INSERT
2
Panel35
8
0
10
0
20
0
30
0
0
INSERT
2
Panel36
8
0
10
0
20
0
30
0
0
ENDSEC
0
EOF
