0
SECTION
2
BLOCKS
0
BLOCK
2
Panel1
10
0
20
0
30
0
70
0
0
POLYLINE
8
1
62
1
66
1
6
CONTINUOUS
70
1
0
VERTEX
8
1
10
5167.2908
20
429.5412
0
VERTEX
8
1
10
5160.5009
20
428.9768
0
VERTEX
8
1
10
5128.0181
20
426.2575
0
VERTEX
8
1
10
5075.7816
20
421.8864
0
VERTEX
8
1
10
5027.9999
20
417.9309
0
VERTEX
8
1
10
4982.2443
20
414.1847
0
VERTEX
8
1
10
4928.2025
20
409.7948
0
VERTEX
8
1
10
4869.6517
20
405.0930
0
VERTEX
8
1
10
4808.8299
20
400.2640
0
VERTEX
8
1
10
4744.5210
20
395.2124
0
VERTEX
8
1
10
4677.2697
20
390.0055
0
VERTEX
8
1
10
4607.3192
20
384.6800
0
VERTEX
8
1
10
4534.7329
20
379.2494
0
VERTEX
8
1
10
4459.6914
20
373.7404
0
VERTEX
8
1
10
4382.2953
20
368.1778
0
VERTEX
8
1
10
4302.6357
20
362.5951
0
VERTEX
8
1
10
4220.8209
20
357.0179
0
VERTEX
8
1
10
4136.9167
20
351.4840
0
VERTEX
8
1
10
4051.0035
20
346.0053
0
VERTEX
8
1
10
3963.1445
20
340.6131
0
VERTEX
8
1
10
3873.3972
20
335.3708
0
VERTEX
8
1
10
3781.8266
20
330.2883
0
VERTEX
8
1
10
3688.4777
20
325.4135
0
VERTEX
8
1
10
3593.3954
20
320.7860
0
VERTEX
8
1
10
3496.6240
20
316.4654
0
VERTEX
8
1
10
3398.2084
20
312.4843
0
VERTEX
8
1
10
3298.1930
20
308.9054
0
VERTEX
8
1
10
3196.6136
20
305.7700
0
VERTEX
8
1
10
3093.4949
20
303.1460
0
VERTEX
8
1
10
2988.8731
20
301.0849
0
VERTEX
8
1
10
2882.7961
20
299.5713
0
VERTEX
8
1
10
2775.2928
20
298.5141
0
VERTEX
8
1
10
2666.3893
20
297.9244
0
VERTEX
8
1
10
2556.1010
20
297.8303
0
VERTEX
8
1
10
2444.4862
20
298.2095
0
VERTEX
8
1
10
2331.5398
20
299.1206
0
VERTEX
8
1
10
2217.3096
20
300.5360
0
VERTEX
8
1
10
2101.8034
20
302.4804
0
VERTEX
8
1
10
1985.0475
20
304.9853
0
VERTEX
8
1
10
1867.0804
20
308.0438
0
VERTEX
8
1
10
1747.9102
20
311.6695
0
VERTEX
8
1
10
1627.5538
20
315.8824
0
VERTEX
8
1
10
1506.0413
20
320.6891
0
VERTEX
8
1
10
1383.3899
20
326.1208
0
VERTEX
8
1
10
1259.6192
20
332.1601
0
VERTEX
8
1
10
1134.7490
20
338.8317
0
VERTEX
8
1
10
1008.7875
20
346.1464
0
VERTEX
8
1
10
881.7657
20
354.1297
0
VERTEX
8
1
10
753.7116
20
362.7821
0
VERTEX
8
1
10
624.6067
20
372.1272
0
VERTEX
8
1
10
494.5110
20
382.1579
0
VERTEX
8
1
10
363.4944
20
392.8982
0
VERTEX
8
1
10
230.4997
20
404.4515
0
VERTEX
8
1
10
103.2870
20
416.0797
0
VERTEX
8
1
10
-35.7065
20
429.5412
0
VERTEX
8
1
10
-18.0982
20
481.3782
0
VERTEX
8
1
10
-1.0137
20
531.6787
0
VERTEX
8
1
10
16.2620
20
582.6052
0
VERTEX
8
1
10
33.5546
20
633.6323
0
VERTEX
8
1
10
50.8472
20
684.6594
0
VERTEX
8
1
10
68.1295
20
735.6962
0
VERTEX
8
1
10
85.4116
20
786.7430
0
VERTEX
8
1
10
102.6736
20
837.7892
0
VERTEX
8
1
10
119.9156
20
888.8347
0
VERTEX
8
1
10
137.1574
20
939.8903
0
VERTEX
8
1
10
154.3791
20
990.9453
0
VERTEX
8
1
10
171.6006
20
1042.0102
0
VERTEX
8
1
10
188.8120
20
1093.0749
0
VERTEX
8
1
10
206.0035
20
1144.1389
0
VERTEX
8
1
10
223.1943
20
1195.2230
0
VERTEX
8
1
10
240.3655
20
1246.2964
0
VERTEX
8
1
10
257.5369
20
1297.3598
0
VERTEX
8
1
10
274.3113
20
1347.3308
0
VERTEX
8
1
10
291.8205
20
1399.6283
0
VERTEX
8
1
10
299.8465
20
1423.6009
0
VERTEX
8
1
10
422.7212
20
1402.0064
0
VERTEX
8
1
10
548.2740
20
1379.9456
0
VERTEX
8
1
10
672.7917
20
1358.0825
0
VERTEX
8
1
10
796.2861
20
1336.4002
0
VERTEX
8
1
10
918.7316
20
1314.9133
0
VERTEX
8
1
10
1040.1108
20
1293.6143
0
VERTEX
8
1
10
1160.4208
20
1272.5076
0
VERTEX
8
1
10
1279.6458
20
1251.5872
0
VERTEX
8
1
10
1397.7686
20
1230.8770
0
VERTEX
8
1
10
1514.7831
20
1210.3505
0
VERTEX
8
1
10
1630.6723
20
1190.0231
0
VERTEX
8
1
10
1745.4332
20
1169.8900
0
VERTEX
8
1
10
1859.0542
20
1149.9657
0
VERTEX
8
1
10
1971.5076
20
1130.2369
0
VERTEX
8
1
10
2082.8028
20
1110.6980
0
VERTEX
8
1
10
2192.9091
20
1091.3795
0
VERTEX
8
1
10
2301.8196
20
1072.2633
0
VERTEX
8
1
10
2409.5263
20
1053.3499
0
VERTEX
8
1
10
2516.0104
20
1034.6571
0
VERTEX
8
1
10
2621.2546
20
1016.1726
0
VERTEX
8
1
10
2725.2490
20
997.9057
0
VERTEX
8
1
10
2827.9722
20
979.8564
0
VERTEX
8
1
10
2929.4074
20
962.0340
0
VERTEX
8
1
10
3029.5454
20
944.4266
0
VERTEX
8
1
10
3128.3550
20
927.0546
0
VERTEX
8
1
10
3225.8149
20
909.9150
0
VERTEX
8
1
10
3321.9096
20
893.0042
0
VERTEX
8
1
10
3416.5853
20
876.3538
0
VERTEX
8
1
10
3509.8483
20
859.9417
0
VERTEX
8
1
10
3601.6533
20
843.7907
0
VERTEX
8
1
10
3691.9735
20
827.8902
0
VERTEX
8
1
10
3780.7635
20
812.2658
0
VERTEX
8
1
10
3867.9965
20
796.9084
0
VERTEX
8
1
10
3953.6286
20
781.8350
0
VERTEX
8
1
10
4037.6079
20
767.0479
0
VERTEX
8
1
10
4119.8793
20
752.5741
0
VERTEX
8
1
10
4200.4060
20
738.3973
0
VERTEX
8
1
10
4279.1150
20
724.5469
0
VERTEX
8
1
10
4355.9323
20
711.0358
0
VERTEX
8
1
10
4430.7769
20
697.8712
0
VERTEX
8
1
10
4503.5843
20
685.0685
0
VERTEX
8
1
10
4574.2279
20
672.6540
0
VERTEX
8
1
10
4642.6059
20
660.6421
0
VERTEX
8
1
10
4708.5929
20
649.0562
0
VERTEX
8
1
10
4772.0423
20
637.9112
0
VERTEX
8
1
10
4832.7678
20
627.2602
0
VERTEX
8
1
10
4890.5599
20
617.1238
0
VERTEX
8
1
10
4945.1708
20
607.5538
0
VERTEX
8
1
10
4996.2851
20
598.5985
0
VERTEX
8
1
10
5043.4628
20
590.3364
0
VERTEX
8
1
10
5086.1483
20
582.8633
0
VERTEX
8
1
10
5123.4270
20
576.3413
0
VERTEX
8
1
10
5153.7557
20
571.0350
0
VERTEX
8
1
10
5168.1443
20
568.5169
0
VERTEX
8
1
10
5167.9394
20
543.1728
0
VERTEX
8
1
10
5167.9212
20
540.9225
0
VERTEX
8
1
10
5167.8866
20
535.2119
0
VERTEX
8
1
10
5167.8512
20
527.5112
0
VERTEX
8
1
10
5167.8003
20
519.3503
0
VERTEX
8
1
10
5167.7617
20
511.9896
0
VERTEX
8
1
10
5167.7242
20
505.5390
0
VERTEX
8
1
10
5167.6902
20
499.7584
0
VERTEX
8
1
10
5167.6619
20
494.4278
0
VERTEX
8
1
10
5167.6315
20
489.3073
0
VERTEX
8
1
10
5167.6012
20
484.1768
0
VERTEX
8
1
10
5167.5731
20
478.8262
0
VERTEX
8
1
10
5167.5389
20
473.0656
0
VERTEX
8
1
10
5167.5009
20
466.6750
0
VERTEX
8
1
10
5167.4607
20
459.4742
0
VERTEX
8
1
10
5167.4085
20
451.4434
0
VERTEX
8
1
10
5167.3663
20
443.4126
0
VERTEX
8
1
10
5167.3244
20
436.3918
0
VERTEX
8
1
10
5167.2926
20
431.4213
0
VERTEX
8
1
10
5167.2908
20
429.5412
0
SEQEND
0
POLYLINE
8
8
62
8
66
1
6
CONTINUOUS
0
VERTEX
8
8
10
291.8205
20
1399.6283
0
VERTEX
8
8
10
418.3939
20
1377.3837
0
VERTEX
8
8
10
543.9476
20
1355.3228
0
VERTEX
8
8
10
668.4682
20
1333.4591
0
VERTEX
8
8
10
791.9629
20
1311.7768
0
VERTEX
8
8
10
914.4106
20
1290.2895
0
VERTEX
8
8
10
1035.7899
20
1268.9905
0
VERTEX
8
8
10
1156.1008
20
1247.8836
0
VERTEX
8
8
10
1275.3250
20
1226.9634
0
VERTEX
8
8
10
1393.4513
20
1206.2526
0
VERTEX
8
8
10
1510.4636
20
1185.7265
0
VERTEX
8
8
10
1626.3531
20
1165.3990
0
VERTEX
8
8
10
1741.1133
20
1145.2660
0
VERTEX
8
8
10
1854.7361
20
1125.3415
0
VERTEX
8
8
10
1967.1876
20
1105.6130
0
VERTEX
8
8
10
2078.4800
20
1086.0746
0
VERTEX
8
8
10
2188.5888
20
1066.7556
0
VERTEX
8
8
10
2297.4976
20
1047.6397
0
VERTEX
8
8
10
2405.2024
20
1028.7266
0
VERTEX
8
8
10
2511.6879
20
1010.0336
0
VERTEX
8
8
10
2616.9299
20
991.5495
0
VERTEX
8
8
10
2720.9239
20
973.2827
0
VERTEX
8
8
10
2823.6458
20
955.2337
0
VERTEX
8
8
10
2925.0811
20
937.4112
0
VERTEX
8
8
10
3025.2161
20
919.8043
0
VERTEX
8
8
10
3124.0260
20
902.4323
0
VERTEX
8
8
10
3221.4847
20
885.2928
0
VERTEX
8
8
10
3317.5766
20
868.3825
0
VERTEX
8
8
10
3412.2551
20
851.7317
0
VERTEX
8
8
10
3505.5154
20
835.3200
0
VERTEX
8
8
10
3597.3216
20
819.1689
0
VERTEX
8
8
10
3687.6390
20
803.2689
0
VERTEX
8
8
10
3776.4308
20
787.6442
0
VERTEX
8
8
10
3863.6619
20
772.2871
0
VERTEX
8
8
10
3949.2946
20
757.2135
0
VERTEX
8
8
10
4033.2726
20
742.4266
0
VERTEX
8
8
10
4115.5477
20
727.9522
0
VERTEX
8
8
10
4196.0714
20
713.7759
0
VERTEX
8
8
10
4274.7823
20
699.9252
0
VERTEX
8
8
10
4351.6017
20
686.4138
0
VERTEX
8
8
10
4426.4461
20
673.2492
0
VERTEX
8
8
10
4499.2546
20
660.4463
0
VERTEX
8
8
10
4569.9009
20
648.0313
0
VERTEX
8
8
10
4638.2804
20
636.0191
0
VERTEX
8
8
10
4704.2696
20
624.4329
0
VERTEX
8
8
10
4767.7172
20
613.2881
0
VERTEX
8
8
10
4828.4489
20
602.6361
0
VERTEX
8
8
10
4886.2409
20
592.4997
0
VERTEX
8
8
10
4940.8556
20
582.9290
0
VERTEX
8
8
10
4991.9708
20
573.9736
0
VERTEX
8
8
10
5039.1502
20
565.7112
0
VERTEX
8
8
10
5081.8371
20
558.2379
0
VERTEX
8
8
10
5119.1185
20
551.7153
0
VERTEX
8
8
10
5149.4472
20
546.4091
0
VERTEX
8
8
10
5167.9394
20
543.1728
0
SEQEND
0
TEXT
8
19
62
3
10
-10.7265
20
428.1266
40
12.0000
50
-5.5318
1
1
0
ENDBLK
0
BLOCK
2
Panel2
10
0
20
0
30
0
70
0
0
POLYLINE
8
1
62
1
66
1
6
CONTINUOUS
70
1
0
VERTEX
8
1
10
4950.7590
20
1469.5512
0
VERTEX
8
1
10
4929.2412
20
1469.5688
0
VERTEX
8
1
10
4893.9827
20
1469.5885
0
VERTEX
8
1
10
4850.6127
20
1469.6063
0
VERTEX
8
1
10
4800.9822
20
1469.6345
0
VERTEX
8
1
10
4746.1080
20
1469.6534
0
VERTEX
8
1
10
4686.6782
20
1469.6645
0
VERTEX
8
1
10
4623.1777
20
1469.6810
0
VERTEX
8
1
10
4555.9793
20
1469.6853
0
VERTEX
8
1
10
4485.3786
20
1469.6856
0
VERTEX
8
1
10
4411.6333
20
1469.6720
0
VERTEX
8
1
10
4334.9335
20
1469.6525
0
VERTEX
8
1
10
4255.4590
20
1469.6331
0
VERTEX
8
1
10
4173.3497
20
1469.6111
0
VERTEX
8
1
10
4088.7560
20
1469.5752
0
VERTEX
8
1
10
4001.7777
20
1469.5381
0
VERTEX
8
1
10
3912.5129
20
1469.4879
0
VERTEX
8
1
10
3821.0590
20
1469.4461
0
VERTEX
8
1
10
3727.4998
20
1469.3914
0
VERTEX
8
1
10
3631.8806
20
1469.3451
0
VERTEX
8
1
10
3534.2919
20
1469.2899
0
VERTEX
8
1
10
3434.7795
20
1469.2369
0
VERTEX
8
1
10
3333.3859
20
1469.1934
0
VERTEX
8
1
10
3230.1828
20
1469.1365
0
VERTEX
8
1
10
3125.1861
20
1469.1015
0
VERTEX
8
1
10
3018.4490
20
1469.0533
0
VERTEX
8
1
10
2910.0011
20
1469.0126
0
VERTEX
8
1
10
2799.8885
20
1468.9774
0
VERTEX
8
1
10
2688.1279
20
1468.9412
0
VERTEX
8
1
10
2574.7612
20
1468.9158
0
VERTEX
8
1
10
2459.8024
20
1468.8930
0
VERTEX
8
1
10
2343.2827
20
1468.8809
0
VERTEX
8
1
10
2225.2260
20
1468.8738
0
VERTEX
8
1
10
2105.6558
20
1468.8687
0
VERTEX
8
1
10
1984.5728
20
1468.8785
0
VERTEX
8
1
10
1862.0224
20
1468.8926
0
VERTEX
8
1
10
1737.9949
20
1468.9212
0
VERTEX
8
1
10
1612.5295
20
1468.9473
0
VERTEX
8
1
10
1485.6276
20
1468.9845
0
VERTEX
8
1
10
1357.3239
20
1469.0330
0
VERTEX
8
1
10
1227.6165
20
1469.0756
0
VERTEX
8
1
10
1096.5289
20
1469.1335
0
VERTEX
8
1
10
964.0689
20
1469.1904
0
VERTEX
8
1
10
830.2658
20
1469.2488
0
VERTEX
8
1
10
695.1277
20
1469.3041
0
VERTEX
8
1
10
558.6725
20
1469.3650
0
VERTEX
8
1
10
420.9130
20
1469.4189
0
VERTEX
8
1
10
281.8684
20
1469.4740
0
VERTEX
8
1
10
141.5677
20
1469.5113
0
VERTEX
8
1
10
-0.0033
20
1469.5512
0
VERTEX
8
1
10
8.0758
20
1523.5339
0
VERTEX
8
1
10
15.9029
20
1575.9319
0
VERTEX
8
1
10
23.8112
20
1628.9699
0
VERTEX
8
1
10
31.7284
20
1682.1119
0
VERTEX
8
1
10
39.6240
20
1735.2596
0
VERTEX
8
1
10
47.5176
20
1788.4171
0
VERTEX
8
1
10
55.3936
20
1841.5608
0
VERTEX
8
1
10
63.2578
20
1894.7122
0
VERTEX
8
1
10
71.1102
20
1947.8713
0
VERTEX
8
1
10
78.9548
20
2001.0186
0
VERTEX
8
1
10
86.7876
20
2054.1737
0
VERTEX
8
1
10
94.6008
20
2107.3247
0
VERTEX
8
1
10
102.4255
20
2160.5189
0
VERTEX
8
1
10
110.2097
20
2213.6128
0
VERTEX
8
1
10
118.0107
20
2266.8225
0
VERTEX
8
1
10
125.8423
20
2320.3757
0
VERTEX
8
1
10
133.2215
20
2370.9030
0
VERTEX
8
1
10
142.9570
20
2437.7235
0
VERTEX
8
1
10
149.0211
20
2479.5823
0
VERTEX
8
1
10
152.6070
20
2504.3351
0
VERTEX
8
1
10
290.4325
20
2480.1274
0
VERTEX
8
1
10
426.2318
20
2456.2730
0
VERTEX
8
1
10
560.7168
20
2432.6590
0
VERTEX
8
1
10
693.8919
20
2409.2759
0
VERTEX
8
1
10
825.7355
20
2386.1317
0
VERTEX
8
1
10
956.2447
20
2363.2152
0
VERTEX
8
1
10
1085.3899
20
2340.5323
0
VERTEX
8
1
10
1213.1760
20
2318.0859
0
VERTEX
8
1
10
1339.5918
20
2295.8755
0
VERTEX
8
1
10
1464.6144
20
2273.8963
0
VERTEX
8
1
10
1588.2466
20
2252.1649
0
VERTEX
8
1
10
1710.4796
20
2230.6594
0
VERTEX
8
1
10
1831.2903
20
2209.4005
0
VERTEX
8
1
10
1950.6804
20
2188.3715
0
VERTEX
8
1
10
2068.6380
20
2167.5983
0
VERTEX
8
1
10
2185.1481
20
2147.0598
0
VERTEX
8
1
10
2300.2013
20
2126.7757
0
VERTEX
8
1
10
2413.7903
20
2106.7285
0
VERTEX
8
1
10
2525.8877
20
2086.9364
0
VERTEX
8
1
10
2636.4894
20
2067.3978
0
VERTEX
8
1
10
2745.5745
20
2048.1208
0
VERTEX
8
1
10
2853.1263
20
2029.1026
0
VERTEX
8
1
10
2959.1036
20
2010.3613
0
VERTEX
8
1
10
3063.4897
20
1991.8868
0
VERTEX
8
1
10
3166.2543
20
1973.6945
0
VERTEX
8
1
10
3267.3509
20
1955.7997
0
VERTEX
8
1
10
3366.7583
20
1938.2017
0
VERTEX
8
1
10
3464.4184
20
1920.9138
0
VERTEX
8
1
10
3560.3095
20
1903.9291
0
VERTEX
8
1
10
3654.3655
20
1887.2724
0
VERTEX
8
1
10
3746.5415
20
1870.9439
0
VERTEX
8
1
10
3836.7606
20
1854.9668
0
VERTEX
8
1
10
3924.9577
20
1839.3365
0
VERTEX
8
1
10
4011.0583
20
1824.0887
0
VERTEX
8
1
10
4094.9836
20
1809.2212
0
VERTEX
8
1
10
4176.6158
20
1794.7699
0
VERTEX
8
1
10
4255.8649
20
1780.7345
0
VERTEX
8
1
10
4332.5712
20
1767.1590
0
VERTEX
8
1
10
4406.6054
20
1754.0653
0
VERTEX
8
1
10
4477.7985
20
1741.4800
0
VERTEX
8
1
10
4545.9502
20
1729.4326
0
VERTEX
8
1
10
4610.8080
20
1717.9751
0
VERTEX
8
1
10
4672.0828
20
1707.1593
0
VERTEX
8
1
10
4729.4320
20
1697.0344
0
VERTEX
8
1
10
4782.3674
20
1687.6997
0
VERTEX
8
1
10
4830.2424
20
1679.2690
0
VERTEX
8
1
10
4872.0602
20
1671.9019
0
VERTEX
8
1
10
4906.0708
20
1665.9097
0
VERTEX
8
1
10
4918.1147
20
1663.7891
0
VERTEX
8
1
10
4922.4700
20
1637.6376
0
VERTEX
8
1
10
4923.3326
20
1632.4581
0
VERTEX
8
1
10
4925.2361
20
1621.1865
0
VERTEX
8
1
10
4927.1280
20
1609.9228
0
VERTEX
8
1
10
4928.6733
20
1600.7612
0
VERTEX
8
1
10
4930.0219
20
1592.7225
0
VERTEX
8
1
10
4931.3695
20
1584.7446
0
VERTEX
8
1
10
4932.8025
20
1576.1927
0
VERTEX
8
1
10
4934.3152
20
1567.2081
0
VERTEX
8
1
10
4935.8641
20
1558.0268
0
VERTEX
8
1
10
4937.4113
20
1548.8553
0
VERTEX
8
1
10
4938.9240
20
1539.8707
0
VERTEX
8
1
10
4940.3678
20
1531.2598
0
VERTEX
8
1
10
4941.7291
20
1523.1522
0
VERTEX
8
1
10
4943.1003
20
1515.0465
0
VERTEX
8
1
10
4944.6184
20
1506.0324
0
VERTEX
8
1
10
4946.4386
20
1495.2131
0
VERTEX
8
1
10
4948.4402
20
1483.2986
0
VERTEX
8
1
10
4950.0789
20
1473.5745
0
VERTEX
8
1
10
4950.7590
20
1469.5512
0
SEQEND
0
POLYLINE
8
8
62
8
66
1
6
CONTINUOUS
0
VERTEX
8
8
10
149.0211
20
2479.5823
0
VERTEX
8
8
10
286.1077
20
2455.5043
0
VERTEX
8
8
10
421.9065
20
2431.6500
0
VERTEX
8
8
10
556.3932
20
2408.0357
0
VERTEX
8
8
10
689.5684
20
2384.6526
0
VERTEX
8
8
10
821.4130
20
2361.5082
0
VERTEX
8
8
10
951.9211
20
2338.5919
0
VERTEX
8
8
10
1081.0651
20
2315.9092
0
VERTEX
8
8
10
1208.8508
20
2293.4629
0
VERTEX
8
8
10
1335.2657
20
2271.2527
0
VERTEX
8
8
10
1460.2858
20
2249.2739
0
VERTEX
8
8
10
1583.9186
20
2227.5424
0
VERTEX
8
8
10
1706.1477
20
2206.0375
0
VERTEX
8
8
10
1826.9577
20
2184.7788
0
VERTEX
8
8
10
1946.3437
20
2163.7505
0
VERTEX
8
8
10
2064.3021
20
2142.9772
0
VERTEX
8
8
10
2180.8080
20
2122.4394
0
VERTEX
8
8
10
2295.8607
20
2102.1554
0
VERTEX
8
8
10
2409.4452
20
2082.1090
0
VERTEX
8
8
10
2521.5409
20
2062.3172
0
VERTEX
8
8
10
2632.1403
20
2042.7790
0
VERTEX
8
8
10
2741.2240
20
2023.5023
0
VERTEX
8
8
10
2848.7731
20
2004.4845
0
VERTEX
8
8
10
2954.7500
20
1985.7433
0
VERTEX
8
8
10
3059.1329
20
1967.2694
0
VERTEX
8
8
10
3161.8964
20
1949.0773
0
VERTEX
8
8
10
3262.9935
20
1931.1823
0
VERTEX
8
8
10
3362.4004
20
1913.5845
0
VERTEX
8
8
10
3460.0607
20
1896.2966
0
VERTEX
8
8
10
3555.9492
20
1879.3123
0
VERTEX
8
8
10
3650.0060
20
1862.6555
0
VERTEX
8
8
10
3742.1807
20
1846.3271
0
VERTEX
8
8
10
3832.4012
20
1830.3499
0
VERTEX
8
8
10
3920.5952
20
1814.7201
0
VERTEX
8
8
10
4006.6988
20
1799.4717
0
VERTEX
8
8
10
4090.6227
20
1784.6045
0
VERTEX
8
8
10
4172.2579
20
1770.1527
0
VERTEX
8
8
10
4251.5051
20
1756.1176
0
VERTEX
8
8
10
4328.2144
20
1742.5416
0
VERTEX
8
8
10
4402.2514
20
1729.4474
0
VERTEX
8
8
10
4473.4465
20
1716.8617
0
VERTEX
8
8
10
4541.5984
20
1704.8143
0
VERTEX
8
8
10
4606.4590
20
1693.3563
0
VERTEX
8
8
10
4667.7371
20
1682.5399
0
VERTEX
8
8
10
4725.0855
20
1672.4151
0
VERTEX
8
8
10
4778.0258
20
1663.0796
0
VERTEX
8
8
10
4825.9067
20
1654.6479
0
VERTEX
8
8
10
4867.7227
20
1647.2811
0
VERTEX
8
8
10
4901.7329
20
1641.2890
0
VERTEX
8
8
10
4922.4700
20
1637.6376
0
SEQEND
0
TEXT
8
19
62
3
10
24.9970
20
1470.5441
40
12.0000
50
-0.0161
1
2
0
POLYLINE
8
8
62
8
66
1
6
CONTINUOUS
0
VERTEX
8
8
10
127.2863
20
2330.2633
0
VERTEX
8
8
10
177.2863
20
2330.2224
0
SEQEND
0
TEXT
8
19
62
3
10
178.2863
20
2330.2216
40
12.0000
50
0.0000
1
R1
0
ENDBLK
0
BLOCK
2
Panel3
10
0
20
0
30
0
70
0
0
POLYLINE
8
1
62
1
66
1
6
CONTINUOUS
70
1
0
VERTEX
8
1
10
4847.1127
20
2547.2748
0
VERTEX
8
1
10
4825.4340
20
2547.3064
0
VERTEX
8
1
10
4789.8936
20
2547.3433
0
VERTEX
8
1
10
4746.1898
20
2547.3646
0
VERTEX
8
1
10
4696.1481
20
2547.3781
0
VERTEX
8
1
10
4640.8186
20
2547.3622
0
VERTEX
8
1
10
4580.8745
20
2547.3269
0
VERTEX
8
1
10
4516.8286
20
2547.2561
0
VERTEX
8
1
10
4449.0431
20
2547.1519
0
VERTEX
8
1
10
4377.8173
20
2547.0260
0
VERTEX
8
1
10
4303.4169
20
2546.8665
0
VERTEX
8
1
10
4226.0452
20
2546.6911
0
VERTEX
8
1
10
4145.8662
20
2546.4922
0
VERTEX
8
1
10
4063.0540
20
2546.2664
0
VERTEX
8
1
10
3977.7382
20
2546.0356
0
VERTEX
8
1
10
3890.0428
20
2545.7861
0
VERTEX
8
1
10
3800.0600
20
2545.5399
0
VERTEX
8
1
10
3707.8965
20
2545.2763
0
VERTEX
8
1
10
3613.6203
20
2545.0164
0
VERTEX
8
1
10
3517.3083
20
2544.7623
0
VERTEX
8
1
10
3419.0138
20
2544.5094
0
VERTEX
8
1
10
3318.8150
20
2544.2724
0
VERTEX
8
1
10
3216.7429
20
2544.0471
0
VERTEX
8
1
10
3112.8660
20
2543.8359
0
VERTEX
8
1
10
3007.2038
20
2543.6550
0
VERTEX
8
1
10
2899.8114
20
2543.4822
0
VERTEX
8
1
10
2790.7164
20
2543.3380
0
VERTEX
8
1
10
2679.9523
20
2543.2254
0
VERTEX
8
1
10
2567.5548
20
2543.1219
0
VERTEX
8
1
10
2453.5356
20
2543.0623
0
VERTEX
8
1
10
2337.9286
20
2543.0362
0
VERTEX
8
1
10
2220.7409
20
2543.0443
0
VERTEX
8
1
10
2102.0041
20
2543.0793
0
VERTEX
8
1
10
1981.7202
20
2543.1547
0
VERTEX
8
1
10
1859.9112
20
2543.2581
0
VERTEX
8
1
10
1736.5691
20
2543.4009
0
VERTEX
8
1
10
1611.7289
20
2543.5687
0
VERTEX
8
1
10
1485.3959
20
2543.7669
0
VERTEX
8
1
10
1357.5702
20
2543.9899
0
VERTEX
8
1
10
1228.2756
20
2544.2319
0
VERTEX
8
1
10
1097.5183
20
2544.5000
0
VERTEX
8
1
10
965.2960
20
2544.7987
0
VERTEX
8
1
10
831.6292
20
2545.1106
0
VERTEX
8
1
10
696.5270
20
2545.4454
0
VERTEX
8
1
10
560.0112
20
2545.7856
0
VERTEX
8
1
10
422.0803
20
2546.1474
0
VERTEX
8
1
10
282.7575
20
2546.5137
0
VERTEX
8
1
10
142.0648
20
2546.8894
0
VERTEX
8
1
10
-0.0103
20
2547.2748
0
VERTEX
8
1
10
-0.8223
20
2575.1655
0
VERTEX
8
1
10
-2.2252
20
2622.6385
0
VERTEX
8
1
10
-3.2847
20
2658.6871
0
VERTEX
8
1
10
-4.3091
20
2693.1350
0
VERTEX
8
1
10
-5.4282
20
2730.4408
0
VERTEX
8
1
10
-6.5384
20
2767.4811
0
VERTEX
8
1
10
-7.6402
20
2803.8250
0
VERTEX
8
1
10
-8.7438
20
2840.2544
0
VERTEX
8
1
10
-9.8887
20
2877.6791
0
VERTEX
8
1
10
-11.0121
20
2914.5634
0
VERTEX
8
1
10
-12.0235
20
2947.6278
0
VERTEX
8
1
10
-13.2513
20
2986.9894
0
VERTEX
8
1
10
-14.3914
20
3023.8348
0
VERTEX
8
1
10
-14.2085
20
3059.9802
0
VERTEX
8
1
10
-14.4136
20
3096.1539
0
VERTEX
8
1
10
-14.8490
20
3132.3112
0
VERTEX
8
1
10
-15.2584
20
3168.4574
0
VERTEX
8
1
10
-15.5378
20
3204.6015
0
VERTEX
8
1
10
-15.7096
20
3240.7455
0
VERTEX
8
1
10
-15.8775
20
3276.9341
0
VERTEX
8
1
10
-16.0733
20
3313.1654
0
VERTEX
8
1
10
-16.3099
20
3349.3912
0
VERTEX
8
1
10
-16.5596
20
3385.5149
0
VERTEX
8
1
10
-16.8281
20
3421.4696
0
VERTEX
8
1
10
-17.0782
20
3457.3240
0
VERTEX
8
1
10
-17.3299
20
3493.3715
0
VERTEX
8
1
10
-17.5902
20
3529.9539
0
VERTEX
8
1
10
-17.8627
20
3567.1881
0
VERTEX
8
1
10
-18.1483
20
3604.2663
0
VERTEX
8
1
10
-18.4153
20
3639.9740
0
VERTEX
8
1
10
-18.6763
20
3673.2083
0
VERTEX
8
1
10
-18.9260
20
3705.0906
0
VERTEX
8
1
10
-19.2110
20
3739.8439
0
VERTEX
8
1
10
-19.5643
20
3781.9007
0
VERTEX
8
1
10
-19.9724
20
3830.4160
0
VERTEX
8
1
10
-20.2609
20
3855.6647
0
VERTEX
8
1
10
-20.5468
20
3880.6812
0
VERTEX
8
1
10
110.3415
20
3877.1961
0
VERTEX
8
1
10
238.9748
20
3873.7609
0
VERTEX
8
1
10
366.2968
20
3870.3643
0
VERTEX
8
1
10
492.3125
20
3866.9993
0
VERTEX
8
1
10
617.0040
20
3863.6503
0
VERTEX
8
1
10
740.3488
20
3860.3356
0
VERTEX
8
1
10
862.3501
20
3857.0458
0
VERTEX
8
1
10
983.0034
20
3853.7828
0
VERTEX
8
1
10
1102.2941
20
3850.5306
0
VERTEX
8
1
10
1220.1978
20
3847.3065
0
VERTEX
8
1
10
1336.7373
20
3844.0981
0
VERTEX
8
1
10
1451.9010
20
3840.9035
0
VERTEX
8
1
10
1565.6681
20
3837.7295
0
VERTEX
8
1
10
1678.0329
20
3834.5749
0
VERTEX
8
1
10
1789.0099
20
3831.4271
0
VERTEX
8
1
10
1898.5831
20
3828.2840
0
VERTEX
8
1
10
2006.7420
20
3825.1581
0
VERTEX
8
1
10
2113.4771
20
3822.0499
0
VERTEX
8
1
10
2218.8057
20
3818.9481
0
VERTEX
8
1
10
2322.7051
20
3815.8525
0
VERTEX
8
1
10
2425.1573
20
3812.7760
0
VERTEX
8
1
10
2526.1583
20
3809.7158
0
VERTEX
8
1
10
2625.6761
20
3806.6764
0
VERTEX
8
1
10
2723.6929
20
3803.6608
0
VERTEX
8
1
10
2820.1859
20
3800.6683
0
VERTEX
8
1
10
2915.1422
20
3797.6948
0
VERTEX
8
1
10
3008.5192
20
3794.7492
0
VERTEX
8
1
10
3100.2987
20
3791.8390
0
VERTEX
8
1
10
3190.4320
20
3788.9489
0
VERTEX
8
1
10
3278.8694
20
3786.1037
0
VERTEX
8
1
10
3365.5833
20
3783.2961
0
VERTEX
8
1
10
3450.4928
20
3780.5406
0
VERTEX
8
1
10
3533.5393
20
3777.8328
0
VERTEX
8
1
10
3614.6454
20
3775.1774
0
VERTEX
8
1
10
3693.7117
20
3772.5936
0
VERTEX
8
1
10
3770.6382
20
3770.0730
0
VERTEX
8
1
10
3845.2935
20
3767.6355
0
VERTEX
8
1
10
3917.5221
20
3765.2870
0
VERTEX
8
1
10
3987.1529
20
3763.0391
0
VERTEX
8
1
10
4054.0041
20
3760.8863
0
VERTEX
8
1
10
4117.7893
20
3758.8531
0
VERTEX
8
1
10
4178.2421
20
3756.9416
0
VERTEX
8
1
10
4234.9782
20
3755.1546
0
VERTEX
8
1
10
4287.4873
20
3753.5264
0
VERTEX
8
1
10
4335.0921
20
3752.0725
0
VERTEX
8
1
10
4376.7939
20
3750.8051
0
VERTEX
8
1
10
4410.7562
20
3749.7849
0
VERTEX
8
1
10
4421.7818
20
3749.4573
0
VERTEX
8
1
10
4430.7616
20
3724.1794
0
VERTEX
8
1
10
4453.7944
20
3659.3425
0
VERTEX
8
1
10
4474.4538
20
3601.0807
0
VERTEX
8
1
10
4496.7463
20
3538.2411
0
VERTEX
8
1
10
4518.6344
20
3476.5207
0
VERTEX
8
1
10
4540.5849
20
3414.5461
0
VERTEX
8
1
10
4562.5085
20
3352.6150
0
VERTEX
8
1
10
4584.4263
20
3290.6709
0
VERTEX
8
1
10
4606.3218
20
3228.7293
0
VERTEX
8
1
10
4628.2302
20
3166.7818
0
VERTEX
8
1
10
4650.1292
20
3104.8309
0
VERTEX
8
1
10
4672.0154
20
3042.8858
0
VERTEX
8
1
10
4693.9050
20
2980.9313
0
VERTEX
8
1
10
4715.7947
20
2918.9769
0
VERTEX
8
1
10
4737.6714
20
2857.0283
0
VERTEX
8
1
10
4759.5611
20
2795.0739
0
VERTEX
8
1
10
4781.4507
20
2733.1194
0
VERTEX
8
1
10
4803.3379
20
2671.1428
0
VERTEX
8
1
10
4825.3214
20
2608.9351
0
VERTEX
8
1
10
4847.1127
20
2547.2748
0
SEQEND
0
POLYLINE
8
8
62
8
66
1
6
CONTINUOUS
0
VERTEX
8
8
10
-20.2609
20
3855.6647
0
VERTEX
8
8
10
109.6760
20
3852.2050
0
VERTEX
8
8
10
238.3074
20
3848.7698
0
VERTEX
8
8
10
365.6301
20
3845.3732
0
VERTEX
8
8
10
491.6451
20
3842.0082
0
VERTEX
8
8
10
616.3328
20
3838.6593
0
VERTEX
8
8
10
739.6772
20
3835.3446
0
VERTEX
8
8
10
861.6762
20
3832.0549
0
VERTEX
8
8
10
982.3276
20
3828.7920
0
VERTEX
8
8
10
1101.6128
20
3825.5399
0
VERTEX
8
8
10
1219.5144
20
3822.3158
0
VERTEX
8
8
10
1336.0493
20
3819.1076
0
VERTEX
8
8
10
1451.2078
20
3815.9132
0
VERTEX
8
8
10
1564.9709
20
3812.7392
0
VERTEX
8
8
10
1677.3313
20
3809.5847
0
VERTEX
8
8
10
1788.3011
20
3806.4371
0
VERTEX
8
8
10
1897.8663
20
3803.2943
0
VERTEX
8
8
10
2006.0198
20
3800.1686
0
VERTEX
8
8
10
2112.7494
20
3797.0605
0
VERTEX
8
8
10
2218.0698
20
3793.9590
0
VERTEX
8
8
10
2321.9606
20
3790.8636
0
VERTEX
8
8
10
2424.4070
20
3787.7873
0
VERTEX
8
8
10
2525.4012
20
3784.7272
0
VERTEX
8
8
10
2624.9129
20
3781.6881
0
VERTEX
8
8
10
2722.9241
20
3778.6726
0
VERTEX
8
8
10
2819.4110
20
3775.6803
0
VERTEX
8
8
10
2914.3597
20
3772.7071
0
VERTEX
8
8
10
3007.7310
20
3769.7617
0
VERTEX
8
8
10
3099.5063
20
3766.8516
0
VERTEX
8
8
10
3189.6308
20
3763.9618
0
VERTEX
8
8
10
3278.0655
20
3761.1166
0
VERTEX
8
8
10
3364.7743
20
3758.3092
0
VERTEX
8
8
10
3449.6819
20
3755.5538
0
VERTEX
8
8
10
3532.7246
20
3752.8461
0
VERTEX
8
8
10
3613.8274
20
3750.1908
0
VERTEX
8
8
10
3692.8951
20
3747.6069
0
VERTEX
8
8
10
3769.8195
20
3745.0864
0
VERTEX
8
8
10
3844.4777
20
3742.6488
0
VERTEX
8
8
10
3916.7097
20
3740.3002
0
VERTEX
8
8
10
3986.3462
20
3738.0522
0
VERTEX
8
8
10
4053.1994
20
3735.8993
0
VERTEX
8
8
10
4116.9928
20
3733.8657
0
VERTEX
8
8
10
4177.4520
20
3731.9541
0
VERTEX
8
8
10
4234.1912
20
3730.1670
0
VERTEX
8
8
10
4286.7125
20
3728.5385
0
VERTEX
8
8
10
4334.3289
20
3727.0841
0
VERTEX
8
8
10
4376.0345
20
3725.8166
0
VERTEX
8
8
10
4410.0056
20
3724.7962
0
VERTEX
8
8
10
4430.7616
20
3724.1794
0
SEQEND
0
TEXT
8
19
62
3
10
24.9923
20
2548.2070
40
12.0000
50
-0.1554
1
3
0
POLYLINE
8
8
62
8
66
1
6
CONTINUOUS
0
VERTEX
8
8
10
2043.5470
20
3771.2002
0
VERTEX
8
8
10
1950.5910
20
3737.5160
0
VERTEX
8
8
10
1857.5995
20
3703.7966
0
VERTEX
8
8
10
1764.5698
20
3670.0515
0
VERTEX
8
8
10
1671.4975
20
3636.2859
0
VERTEX
8
8
10
1578.3709
20
3602.4873
0
VERTEX
8
8
10
1485.1760
20
3568.6329
0
VERTEX
8
8
10
1391.9278
20
3534.7636
0
VERTEX
8
8
10
1298.6175
20
3500.8866
0
VERTEX
8
8
10
1205.2570
20
3466.9786
0
VERTEX
8
8
10
1111.8145
20
3433.0388
0
VERTEX
8
8
10
1018.2745
20
3399.0354
0
VERTEX
8
8
10
924.7049
20
3365.0319
0
VERTEX
8
8
10
831.0952
20
3331.0382
0
VERTEX
8
8
10
737.3880
20
3296.9914
0
VERTEX
8
8
10
643.5633
20
3262.8820
0
VERTEX
8
8
10
549.7535
20
3228.7930
0
VERTEX
8
8
10
455.9380
20
3194.7078
0
VERTEX
8
8
10
361.9187
20
3160.5063
0
VERTEX
8
8
10
267.8664
20
3126.3232
0
VERTEX
8
8
10
173.9131
20
3092.1993
0
VERTEX
8
8
10
79.7698
20
3057.9672
0
SEQEND
0
POLYLINE
8
8
62
8
66
1
6
CONTINUOUS
0
VERTEX
8
8
10
-14.3914
20
3023.8348
0
VERTEX
8
8
10
-4.3914
20
3023.8202
0
SEQEND
0
POLYLINE
8
8
62
8
66
1
6
CONTINUOUS
0
VERTEX
8
8
10
3270.0144
20
3575.9899
0
VERTEX
8
8
10
3251.1942
20
3569.2224
0
SEQEND
0
POLYLINE
8
8
62
8
66
1
6
CONTINUOUS
0
VERTEX
8
8
10
3262.2962
20
3567.9011
0
VERTEX
8
8
10
3258.9124
20
3577.3112
0
SEQEND
0
POLYLINE
8
8
62
8
66
1
6
CONTINUOUS
0
VERTEX
8
8
10
2184.5727
20
3183.4532
0
VERTEX
8
8
10
2165.7664
20
3176.6473
0
SEQEND
0
POLYLINE
8
8
62
8
66
1
6
CONTINUOUS
0
VERTEX
8
8
10
2176.8710
20
3175.3487
0
VERTEX
8
8
10
2173.4681
20
3184.7518
0
SEQEND
0
POLYLINE
8
8
62
8
66
1
6
CONTINUOUS
0
VERTEX
8
8
10
1099.0886
20
2791.3416
0
VERTEX
8
8
10
1080.2790
20
2784.5448
0
SEQEND
0
POLYLINE
8
8
62
8
66
1
6
CONTINUOUS
0
VERTEX
8
8
10
1091.3830
20
2783.2408
0
VERTEX
8
8
10
1087.9846
20
2792.6456
0
SEQEND
0
TEXT
8
19
62
3
10
-3.3914
20
3023.8187
40
12.0000
50
0.0000
1
4
0
ENDBLK
0
BLOCK
2
Panel4
10
0
20
0
30
0
70
0
0
POLYLINE
8
1
62
1
66
1
6
CONTINUOUS
70
1
0
VERTEX
8
1
10
4452.9565
20
3936.7257
0
VERTEX
8
1
10
4429.4955
20
3936.6938
0
VERTEX
8
1
10
4391.1224
20
3936.6323
0
VERTEX
8
1
10
4344.0297
20
3936.5489
0
VERTEX
8
1
10
4290.2604
20
3936.4333
0
VERTEX
8
1
10
4230.9807
20
3936.2984
0
VERTEX
8
1
10
4166.9748
20
3936.1316
0
VERTEX
8
1
10
4098.7890
20
3935.9424
0
VERTEX
8
1
10
4026.8580
20
3935.7285
0
VERTEX
8
1
10
3951.5192
20
3935.5012
0
VERTEX
8
1
10
3873.0501
20
3935.2588
0
VERTEX
8
1
10
3791.6859
20
3935.0039
0
VERTEX
8
1
10
3707.6217
20
3934.7442
0
VERTEX
8
1
10
3621.0153
20
3934.4732
0
VERTEX
8
1
10
3532.0046
20
3934.2195
0
VERTEX
8
1
10
3440.7002
20
3933.9672
0
VERTEX
8
1
10
3347.2159
20
3933.7253
0
VERTEX
8
1
10
3251.6271
20
3933.4989
0
VERTEX
8
1
10
3154.0019
20
3933.2891
0
VERTEX
8
1
10
3054.4075
20
3933.0998
0
VERTEX
8
1
10
2952.8863
20
3932.9235
0
VERTEX
8
1
10
2849.4940
20
3932.7832
0
VERTEX
8
1
10
2744.2545
20
3932.6540
0
VERTEX
8
1
10
2637.1984
20
3932.5617
0
VERTEX
8
1
10
2528.3684
20
3932.4827
0
VERTEX
8
1
10
2417.7775
20
3932.4370
0
VERTEX
8
1
10
2305.4725
20
3932.4166
0
VERTEX
8
1
10
2191.4469
20
3932.4408
0
VERTEX
8
1
10
2075.7356
20
3932.4854
0
VERTEX
8
1
10
1958.3361
20
3932.5643
0
VERTEX
8
1
10
1839.2543
20
3932.6763
0
VERTEX
8
1
10
1718.4970
20
3932.8183
0
VERTEX
8
1
10
1596.0723
20
3932.9899
0
VERTEX
8
1
10
1471.9931
20
3933.1813
0
VERTEX
8
1
10
1346.2579
20
3933.3994
0
VERTEX
8
1
10
1218.8773
20
3933.6446
0
VERTEX
8
1
10
1089.8605
20
3933.9063
0
VERTEX
8
1
10
959.2185
20
3934.1967
0
VERTEX
8
1
10
826.9405
20
3934.5073
0
VERTEX
8
1
10
693.0685
20
3934.8415
0
VERTEX
8
1
10
557.5932
20
3935.1910
0
VERTEX
8
1
10
420.5410
20
3935.5520
0
VERTEX
8
1
10
281.9027
20
3935.9373
0
VERTEX
8
1
10
141.7234
20
3936.3286
0
VERTEX
8
1
10
-0.0082
20
3936.7257
0
VERTEX
8
1
10
-1.7618
20
3986.5732
0
VERTEX
8
1
10
-4.9654
20
4076.6462
0
VERTEX
8
1
10
-7.4904
20
4147.0057
0
VERTEX
8
1
10
-9.7957
20
4210.3194
0
VERTEX
8
1
10
-12.3153
20
4279.2987
0
VERTEX
8
1
10
-14.8871
20
4349.2353
0
VERTEX
8
1
10
-17.4194
20
4417.6868
0
VERTEX
8
1
10
-19.9726
20
4486.0858
0
VERTEX
8
1
10
-22.5617
20
4554.8721
0
VERTEX
8
1
10
-25.1613
20
4623.7082
0
VERTEX
8
1
10
-27.7711
20
4692.2897
0
VERTEX
8
1
10
-30.3873
20
4760.6072
0
VERTEX
8
1
10
-33.0634
20
4829.8241
0
VERTEX
8
1
10
-35.7888
20
4899.6620
0
VERTEX
8
1
10
-38.3591
20
4965.4414
0
VERTEX
8
1
10
-40.9397
20
5030.9660
0
VERTEX
8
1
10
-44.2494
20
5114.1690
0
VERTEX
8
1
10
-47.7389
20
5201.1588
0
VERTEX
8
1
10
-49.4068
20
5241.8373
0
VERTEX
8
1
10
-50.4317
20
5266.8316
0
VERTEX
8
1
10
76.3094
20
5267.5947
0
VERTEX
8
1
10
200.7790
20
5268.3320
0
VERTEX
8
1
10
323.8339
20
5269.0589
0
VERTEX
8
1
10
445.4656
20
5269.7631
0
VERTEX
8
1
10
565.6573
20
5270.4422
0
VERTEX
8
1
10
684.4024
20
5271.0972
0
VERTEX
8
1
10
801.6926
20
5271.7272
0
VERTEX
8
1
10
917.5049
20
5272.3367
0
VERTEX
8
1
10
1031.8628
20
5272.9152
0
VERTEX
8
1
10
1144.7501
20
5273.4587
0
VERTEX
8
1
10
1256.1724
20
5273.9736
0
VERTEX
8
1
10
1366.1003
20
5274.4721
0
VERTEX
8
1
10
1474.5684
20
5274.9240
0
VERTEX
8
1
10
1581.5441
20
5275.3565
0
VERTEX
8
1
10
1687.0466
20
5275.7435
0
VERTEX
8
1
10
1791.0693
20
5276.1120
0
VERTEX
8
1
10
1893.6259
20
5276.4335
0
VERTEX
8
1
10
1994.6955
20
5276.7302
0
VERTEX
8
1
10
2094.2810
20
5276.9937
0
VERTEX
8
1
10
2192.4194
20
5277.2094
0
VERTEX
8
1
10
2289.0435
20
5277.4060
0
VERTEX
8
1
10
2384.1697
20
5277.5785
0
VERTEX
8
1
10
2477.7760
20
5277.7267
0
VERTEX
8
1
10
2569.8406
20
5277.8423
0
VERTEX
8
1
10
2660.3491
20
5277.9312
0
VERTEX
8
1
10
2749.2597
20
5278.0012
0
VERTEX
8
1
10
2836.5627
20
5278.0499
0
VERTEX
8
1
10
2922.1983
20
5278.0786
0
VERTEX
8
1
10
3006.1172
20
5278.0954
0
VERTEX
8
1
10
3088.2566
20
5278.1014
0
VERTEX
8
1
10
3168.5435
20
5278.0956
0
VERTEX
8
1
10
3246.8972
20
5278.0743
0
VERTEX
8
1
10
3323.1959
20
5278.0541
0
VERTEX
8
1
10
3397.2956
20
5278.0257
0
VERTEX
8
1
10
3469.0156
20
5277.9932
0
VERTEX
8
1
10
3538.1692
20
5277.9679
0
VERTEX
8
1
10
3604.4631
20
5277.9475
0
VERTEX
8
1
10
3667.6036
20
5277.9319
0
VERTEX
8
1
10
3727.1450
20
5277.9226
0
VERTEX
8
1
10
3782.5276
20
5277.9304
0
VERTEX
8
1
10
3833.0063
20
5277.9355
0
VERTEX
8
1
10
3877.4078
20
5277.9623
0
VERTEX
8
1
10
3913.7364
20
5277.9829
0
VERTEX
8
1
10
3926.1478
20
5277.9924
0
VERTEX
8
1
10
3936.0227
20
5252.9999
0
VERTEX
8
1
10
3962.0005
20
5187.2527
0
VERTEX
8
1
10
3992.7737
20
5109.4004
0
VERTEX
8
1
10
4017.6120
20
5046.4070
0
VERTEX
8
1
10
4045.0713
20
4976.7178
0
VERTEX
8
1
10
4072.9179
20
4906.4735
0
VERTEX
8
1
10
4099.8847
20
4837.5988
0
VERTEX
8
1
10
4126.6704
20
4768.1866
0
VERTEX
8
1
10
4154.7260
20
4699.1819
0
VERTEX
8
1
10
4181.5879
20
4629.7682
0
VERTEX
8
1
10
4208.8574
20
4560.5199
0
VERTEX
8
1
10
4236.0343
20
4491.2341
0
VERTEX
8
1
10
4263.2149
20
4421.9390
0
VERTEX
8
1
10
4290.3733
20
4352.6456
0
VERTEX
8
1
10
4317.5076
20
4283.3317
0
VERTEX
8
1
10
4344.6289
20
4214.0233
0
VERTEX
8
1
10
4371.6940
20
4144.8000
0
VERTEX
8
1
10
4399.0716
20
4074.7538
0
VERTEX
8
1
10
4425.0101
20
4008.3325
0
VERTEX
8
1
10
4452.9565
20
3936.7257
0
SEQEND
0
POLYLINE
8
8
62
8
66
1
6
CONTINUOUS
0
VERTEX
8
8
10
-49.4068
20
5241.8373
0
VERTEX
8
8
10
76.4599
20
5242.5951
0
VERTEX
8
8
10
200.9271
20
5243.3325
0
VERTEX
8
8
10
323.9815
20
5244.0593
0
VERTEX
8
8
10
445.6104
20
5244.7636
0
VERTEX
8
8
10
565.7985
20
5245.4426
0
VERTEX
8
8
10
684.5403
20
5246.0976
0
VERTEX
8
8
10
801.8269
20
5246.7276
0
VERTEX
8
8
10
917.6365
20
5247.3371
0
VERTEX
8
8
10
1031.9892
20
5247.9155
0
VERTEX
8
8
10
1144.8705
20
5248.4590
0
VERTEX
8
8
10
1256.2880
20
5248.9739
0
VERTEX
8
8
10
1366.2137
20
5249.4723
0
VERTEX
8
8
10
1474.6725
20
5249.9242
0
VERTEX
8
8
10
1581.6452
20
5250.3567
0
VERTEX
8
8
10
1687.1383
20
5250.7437
0
VERTEX
8
8
10
1791.1579
20
5251.1122
0
VERTEX
8
8
10
1893.7043
20
5251.4337
0
VERTEX
8
8
10
1994.7689
20
5251.7303
0
VERTEX
8
8
10
2094.3472
20
5251.9938
0
VERTEX
8
8
10
2192.4743
20
5252.2094
0
VERTEX
8
8
10
2289.0943
20
5252.4061
0
VERTEX
8
8
10
2384.2151
20
5252.5785
0
VERTEX
8
8
10
2477.8156
20
5252.7268
0
VERTEX
8
8
10
2569.8720
20
5252.8423
0
VERTEX
8
8
10
2660.3736
20
5252.9313
0
VERTEX
8
8
10
2749.2794
20
5253.0012
0
VERTEX
8
8
10
2836.5766
20
5253.0499
0
VERTEX
8
8
10
2922.2067
20
5253.0786
0
VERTEX
8
8
10
3006.1222
20
5253.0954
0
VERTEX
8
8
10
3088.2584
20
5253.1014
0
VERTEX
8
8
10
3168.5417
20
5253.0956
0
VERTEX
8
8
10
3246.8904
20
5253.0743
0
VERTEX
8
8
10
3323.1893
20
5253.0541
0
VERTEX
8
8
10
3397.2860
20
5253.0257
0
VERTEX
8
8
10
3469.0043
20
5252.9932
0
VERTEX
8
8
10
3538.1600
20
5252.9679
0
VERTEX
8
8
10
3604.4554
20
5252.9475
0
VERTEX
8
8
10
3667.5975
20
5252.9319
0
VERTEX
8
8
10
3727.1411
20
5252.9226
0
VERTEX
8
8
10
3782.5311
20
5252.9304
0
VERTEX
8
8
10
3833.0088
20
5252.9355
0
VERTEX
8
8
10
3877.4229
20
5252.9623
0
VERTEX
8
8
10
3913.7506
20
5252.9829
0
VERTEX
8
8
10
3936.0227
20
5252.9999
0
SEQEND
0
TEXT
8
19
62
3
10
24.9945
20
3937.6556
40
12.0000
50
-0.1605
1
4
0
POLYLINE
8
8
62
8
66
1
6
CONTINUOUS
0
VERTEX
8
8
10
4041.4251
20
4687.4945
0
VERTEX
8
8
10
3941.0811
20
4647.6363
0
VERTEX
8
8
10
3841.7244
20
4608.1907
0
VERTEX
8
8
10
3744.2424
20
4569.4071
0
VERTEX
8
8
10
3647.1146
20
4530.8701
0
VERTEX
8
8
10
3551.3967
20
4492.8291
0
VERTEX
8
8
10
3455.9776
20
4454.9454
0
VERTEX
8
8
10
3361.2553
20
4417.3702
0
VERTEX
8
8
10
3267.2489
20
4380.0419
0
VERTEX
8
8
10
3173.6286
20
4342.8906
0
VERTEX
8
8
10
3080.3541
20
4305.9016
0
VERTEX
8
8
10
2987.3697
20
4269.0454
0
VERTEX
8
8
10
2894.6332
20
4232.2973
0
VERTEX
8
8
10
2802.1001
20
4195.6576
0
VERTEX
8
8
10
2709.7290
20
4159.1026
0
VERTEX
8
8
10
2617.4932
20
4122.6086
0
VERTEX
8
8
10
2525.3499
20
4086.1869
0
VERTEX
8
8
10
2433.2810
20
4049.8072
0
VERTEX
8
8
10
2341.2649
20
4013.4726
0
VERTEX
8
8
10
2249.2837
20
3977.1800
0
VERTEX
8
8
10
2157.3178
20
3940.9220
0
SEQEND
0
POLYLINE
8
8
62
8
66
1
6
CONTINUOUS
0
VERTEX
8
8
10
4143.0616
20
4727.8713
0
VERTEX
8
8
10
4133.0616
20
4727.8577
0
SEQEND
0
POLYLINE
8
8
62
8
66
1
6
CONTINUOUS
0
VERTEX
8
8
10
4360.2334
20
4174.1121
0
VERTEX
8
8
10
4350.2335
20
4174.0986
0
SEQEND
0
POLYLINE
8
8
62
8
66
1
6
CONTINUOUS
0
VERTEX
8
8
10
1852.5834
20
5112.6493
0
VERTEX
8
8
10
1833.9754
20
5105.3183
0
SEQEND
0
POLYLINE
8
8
62
8
66
1
6
CONTINUOUS
0
VERTEX
8
8
10
1845.1122
20
5104.3318
0
VERTEX
8
8
10
1841.4467
20
5113.6358
0
SEQEND
0
POLYLINE
8
8
62
8
66
1
6
CONTINUOUS
0
VERTEX
8
8
10
922.8326
20
4745.4752
0
VERTEX
8
8
10
904.2338
20
4738.1210
0
SEQEND
0
POLYLINE
8
8
62
8
66
1
6
CONTINUOUS
0
VERTEX
8
8
10
915.3717
20
4737.1484
0
VERTEX
8
8
10
911.6946
20
4746.4478
0
SEQEND
0
POLYLINE
8
8
62
8
66
1
6
CONTINUOUS
0
VERTEX
8
8
10
-15.8223
20
4374.5157
0
VERTEX
8
8
10
34.1776
20
4374.5836
0
SEQEND
0
TEXT
8
19
62
3
10
4349.2335
20
4174.0972
40
12.0000
50
0.0000
1
R1
0
TEXT
8
19
62
3
10
35.1776
20
4374.5849
40
12.0000
50
0.0000
1
R2
0
ENDBLK
0
BLOCK
2
Panel5
10
0
20
0
30
0
70
0
0
POLYLINE
8
1
62
1
66
1
6
CONTINUOUS
70
1
0
VERTEX
8
1
10
3985.3993
20
5329.6933
0
VERTEX
8
1
10
3959.0409
20
5329.6082
0
VERTEX
8
1
10
3916.0678
20
5329.4670
0
VERTEX
8
1
10
3863.6082
20
5329.2806
0
VERTEX
8
1
10
3804.0503
20
5329.0744
0
VERTEX
8
1
10
3738.7684
20
5328.8276
0
VERTEX
8
1
10
3668.6872
20
5328.5634
0
VERTEX
8
1
10
3594.4565
20
5328.2792
0
VERTEX
8
1
10
3516.5629
20
5327.9819
0
VERTEX
8
1
10
3435.3997
20
5327.6741
0
VERTEX
8
1
10
3351.2525
20
5327.3666
0
VERTEX
8
1
10
3264.3537
20
5327.0623
0
VERTEX
8
1
10
3174.9103
20
5326.7643
0
VERTEX
8
1
10
3083.0517
20
5326.4786
0
VERTEX
8
1
10
2988.9064
20
5326.2100
0
VERTEX
8
1
10
2892.5651
20
5325.9515
0
VERTEX
8
1
10
2794.1029
20
5325.7208
0
VERTEX
8
1
10
2693.5907
20
5325.5149
0
VERTEX
8
1
10
2591.0548
20
5325.3348
0
VERTEX
8
1
10
2486.5400
20
5325.1794
0
VERTEX
8
1
10
2380.0872
20
5325.0579
0
VERTEX
8
1
10
2271.7081
20
5324.9680
0
VERTEX
8
1
10
2161.4162
20
5324.9086
0
VERTEX
8
1
10
2049.2536
20
5324.8952
0
VERTEX
8
1
10
1935.2074
20
5324.9102
0
VERTEX
8
1
10
1819.2955
20
5324.9699
0
VERTEX
8
1
10
1701.4961
20
5325.0634
0
VERTEX
8
1
10
1581.8104
20
5325.2122
0
VERTEX
8
1
10
1460.2392
20
5325.3931
0
VERTEX
8
1
10
1336.7965
20
5325.6109
0
VERTEX
8
1
10
1211.4675
20
5325.8693
0
VERTEX
8
1
10
1084.2667
20
5326.1624
0
VERTEX
8
1
10
955.1831
20
5326.4952
0
VERTEX
8
1
10
824.2501
20
5326.8583
0
VERTEX
8
1
10
691.4452
20
5327.2506
0
VERTEX
8
1
10
556.7896
20
5327.6789
0
VERTEX
8
1
10
420.3035
20
5328.1371
0
VERTEX
8
1
10
281.9819
20
5328.6299
0
VERTEX
8
1
10
141.8568
20
5329.1546
0
VERTEX
8
1
10
-0.0415
20
5329.6933
0
VERTEX
8
1
10
-0.8319
20
5352.6917
0
VERTEX
8
1
10
-2.6553
20
5405.0136
0
VERTEX
8
1
10
-4.6287
20
5461.6693
0
VERTEX
8
1
10
-6.1866
20
5506.1232
0
VERTEX
8
1
10
-7.6014
20
5546.2078
0
VERTEX
8
1
10
-9.3047
20
5594.0094
0
VERTEX
8
1
10
-11.3799
20
5651.8816
0
VERTEX
8
1
10
-13.1680
20
5701.7320
0
VERTEX
8
1
10
-13.9342
20
5722.9275
0
VERTEX
8
1
10
-14.1083
20
5764.3402
0
VERTEX
8
1
10
-14.1839
20
5805.7512
0
VERTEX
8
1
10
-14.2057
20
5847.1632
0
VERTEX
8
1
10
-14.2735
20
5888.5557
0
VERTEX
8
1
10
-14.3899
20
5929.9603
0
VERTEX
8
1
10
-14.5232
20
5971.3794
0
VERTEX
8
1
10
-14.6576
20
6012.8523
0
VERTEX
8
1
10
-14.7828
20
6054.3292
0
VERTEX
8
1
10
-14.9190
20
6095.7037
0
VERTEX
8
1
10
-15.0443
20
6136.8982
0
VERTEX
8
1
10
-15.1933
20
6178.0718
0
VERTEX
8
1
10
-15.3393
20
6219.5724
0
VERTEX
8
1
10
-15.5112
20
6261.7244
0
VERTEX
8
1
10
-15.6862
20
6304.0379
0
VERTEX
8
1
10
-15.8575
20
6345.2130
0
VERTEX
8
1
10
-16.0270
20
6384.0218
0
VERTEX
8
1
10
-16.1942
20
6421.9522
0
VERTEX
8
1
10
-16.3835
20
6463.7603
0
VERTEX
8
1
10
-16.6387
20
6514.2481
0
VERTEX
8
1
10
-16.9258
20
6569.8689
0
VERTEX
8
1
10
-17.1638
20
6615.2067
0
VERTEX
8
1
10
-17.3297
20
6634.1184
0
VERTEX
8
1
10
-17.5490
20
6659.1175
0
VERTEX
8
1
10
104.9849
20
6659.9734
0
VERTEX
8
1
10
225.9212
20
6660.8115
0
VERTEX
8
1
10
345.3141
20
6661.6235
0
VERTEX
8
1
10
463.1349
20
6662.4039
0
VERTEX
8
1
10
579.3622
20
6663.1620
0
VERTEX
8
1
10
693.9894
20
6663.8879
0
VERTEX
8
1
10
807.0245
20
6664.5769
0
VERTEX
8
1
10
918.4311
20
6665.2406
0
VERTEX
8
1
10
1028.2239
20
6665.8625
0
VERTEX
8
1
10
1136.3886
20
6666.4516
0
VERTEX
8
1
10
1242.9380
20
6667.0022
0
VERTEX
8
1
10
1347.8780
20
6667.5065
0
VERTEX
8
1
10
1451.1993
20
6667.9857
0
VERTEX
8
1
10
1552.9242
20
6668.4125
0
VERTEX
8
1
10
1653.0448
20
6668.8113
0
VERTEX
8
1
10
1751.6000
20
6669.1621
0
VERTEX
8
1
10
1848.5859
20
6669.4668
0
VERTEX
8
1
10
1944.0067
20
6669.7418
0
VERTEX
8
1
10
2037.8607
20
6669.9814
0
VERTEX
8
1
10
2130.1657
20
6670.1780
0
VERTEX
8
1
10
2220.8747
20
6670.3430
0
VERTEX
8
1
10
2310.0061
20
6670.4812
0
VERTEX
8
1
10
2397.5207
20
6670.5839
0
VERTEX
8
1
10
2483.4054
20
6670.6584
0
VERTEX
8
1
10
2567.6126
20
6670.7068
0
VERTEX
8
1
10
2650.1108
20
6670.7290
0
VERTEX
8
1
10
2730.8072
20
6670.7228
0
VERTEX
8
1
10
2809.6329
20
6670.7107
0
VERTEX
8
1
10
2886.4508
20
6670.6823
0
VERTEX
8
1
10
2961.1284
20
6670.6344
0
VERTEX
8
1
10
3033.4444
20
6670.5847
0
VERTEX
8
1
10
3103.1614
20
6670.5298
0
VERTEX
8
1
10
3169.9194
20
6670.4738
0
VERTEX
8
1
10
3233.2560
20
6670.4218
0
VERTEX
8
1
10
3292.5642
20
6670.3730
0
VERTEX
8
1
10
3346.9696
20
6670.3383
0
VERTEX
8
1
10
3395.1509
20
6670.3006
0
VERTEX
8
1
10
3434.8031
20
6670.2863
0
VERTEX
8
1
10
3449.1509
20
6670.2761
0
VERTEX
8
1
10
3459.2062
20
6645.2690
0
VERTEX
8
1
10
3482.5419
20
6587.2336
0
VERTEX
8
1
10
3516.9254
20
6501.7266
0
VERTEX
8
1
10
3542.7821
20
6437.3544
0
VERTEX
8
1
10
3569.9824
20
6369.6099
0
VERTEX
8
1
10
3598.3375
20
6298.9561
0
VERTEX
8
1
10
3626.0108
20
6229.9466
0
VERTEX
8
1
10
3653.6656
20
6160.9296
0
VERTEX
8
1
10
3681.4396
20
6091.5939
0
VERTEX
8
1
10
3709.1535
20
6022.3526
0
VERTEX
8
1
10
3736.8262
20
5953.1592
0
VERTEX
8
1
10
3764.5199
20
5883.8880
0
VERTEX
8
1
10
3792.2253
20
5814.5352
0
VERTEX
8
1
10
3819.7611
20
5745.5451
0
VERTEX
8
1
10
3847.3875
20
5676.3329
0
VERTEX
8
1
10
3875.5835
20
5605.5925
0
VERTEX
8
1
10
3902.2528
20
5538.6466
0
VERTEX
8
1
10
3928.4535
20
5472.8488
0
VERTEX
8
1
10
3963.3954
20
5385.0207
0
VERTEX
8
1
10
3985.3993
20
5329.6933
0
SEQEND
0
POLYLINE
8
8
62
8
66
1
6
CONTINUOUS
0
VERTEX
8
8
10
-17.3297
20
6634.1184
0
VERTEX
8
8
10
105.1595
20
6634.9740
0
VERTEX
8
8
10
226.0944
20
6635.8121
0
VERTEX
8
8
10
345.4841
20
6636.6241
0
VERTEX
8
8
10
463.3005
20
6637.4045
0
VERTEX
8
8
10
579.5253
20
6638.1625
0
VERTEX
8
8
10
694.1478
20
6638.8884
0
VERTEX
8
8
10
807.1769
20
6639.5774
0
VERTEX
8
8
10
918.5800
20
6640.2410
0
VERTEX
8
8
10
1028.3655
20
6640.8629
0
VERTEX
8
8
10
1136.5247
20
6641.4520
0
VERTEX
8
8
10
1243.0672
20
6642.0025
0
VERTEX
8
8
10
1347.9981
20
6642.5068
0
VERTEX
8
8
10
1451.3152
20
6642.9859
0
VERTEX
8
8
10
1553.0291
20
6643.4127
0
VERTEX
8
8
10
1653.1444
20
6643.8115
0
VERTEX
8
8
10
1751.6890
20
6644.1623
0
VERTEX
8
8
10
1848.6644
20
6644.4669
0
VERTEX
8
8
10
1944.0788
20
6644.7419
0
VERTEX
8
8
10
2037.9245
20
6644.9815
0
VERTEX
8
8
10
2130.2189
20
6645.1780
0
VERTEX
8
8
10
2220.9201
20
6645.3430
0
VERTEX
8
8
10
2310.0448
20
6645.4812
0
VERTEX
8
8
10
2397.5501
20
6645.5840
0
VERTEX
8
8
10
2483.4271
20
6645.6584
0
VERTEX
8
8
10
2567.6270
20
6645.7068
0
VERTEX
8
8
10
2650.1175
20
6645.7290
0
VERTEX
8
8
10
2730.8053
20
6645.7228
0
VERTEX
8
8
10
2809.6290
20
6645.7107
0
VERTEX
8
8
10
2886.4416
20
6645.6823
0
VERTEX
8
8
10
2961.1124
20
6645.6344
0
VERTEX
8
8
10
3033.4272
20
6645.5847
0
VERTEX
8
8
10
3103.1418
20
6645.5299
0
VERTEX
8
8
10
3169.8984
20
6645.4738
0
VERTEX
8
8
10
3233.2355
20
6645.4218
0
VERTEX
8
8
10
3292.5436
20
6645.3730
0
VERTEX
8
8
10
3346.9537
20
6645.3383
0
VERTEX
8
8
10
3395.1314
20
6645.3006
0
VERTEX
8
8
10
3434.7940
20
6645.2863
0
VERTEX
8
8
10
3459.2062
20
6645.2690
0
SEQEND
0
TEXT
8
19
62
3
10
24.9621
20
5330.5984
40
12.0000
50
-0.2175
1
5
0
POLYLINE
8
8
62
8
66
1
6
CONTINUOUS
0
VERTEX
8
8
10
2300.3742
20
6627.5993
0
VERTEX
8
8
10
2206.9949
20
6591.3094
0
VERTEX
8
8
10
2114.0506
20
6555.1415
0
VERTEX
8
8
10
2021.4422
20
6519.0863
0
VERTEX
8
8
10
1929.0968
20
6483.0927
0
VERTEX
8
8
10
1836.9491
20
6447.1522
0
VERTEX
8
8
10
1744.9383
20
6411.2394
0
VERTEX
8
8
10
1653.0000
20
6375.3415
0
VERTEX
8
8
10
1561.1040
20
6339.4439
0
VERTEX
8
8
10
1469.1917
20
6303.5325
0
VERTEX
8
8
10
1377.2482
20
6267.5886
0
VERTEX
8
8
10
1285.2429
20
6231.6080
0
VERTEX
8
8
10
1193.1626
20
6195.5989
0
VERTEX
8
8
10
1100.9893
20
6159.5336
0
VERTEX
8
8
10
1008.7141
20
6123.4158
0
VERTEX
8
8
10
916.3232
20
6087.2618
0
VERTEX
8
8
10
823.8286
20
6051.0521
0
VERTEX
8
8
10
731.2002
20
6014.7845
0
VERTEX
8
8
10
638.4529
20
5978.4244
0
VERTEX
8
8
10
545.5909
20
5942.0654
0
VERTEX
8
8
10
452.6076
20
5905.6412
0
VERTEX
8
8
10
359.4838
20
5869.1786
0
VERTEX
8
8
10
266.2510
20
5832.6700
0
VERTEX
8
8
10
172.9386
20
5796.1149
0
VERTEX
8
8
10
79.4539
20
5759.5117
0
SEQEND
0
POLYLINE
8
8
62
8
66
1
6
CONTINUOUS
0
VERTEX
8
8
10
-13.9342
20
5722.9275
0
VERTEX
8
8
10
-3.9342
20
5722.9598
0
SEQEND
0
POLYLINE
8
8
62
8
66
1
6
CONTINUOUS
0
VERTEX
8
8
10
2832.5955
20
5550.7676
0
VERTEX
8
8
10
2813.9830
20
5543.4483
0
SEQEND
0
POLYLINE
8
8
62
8
66
1
6
CONTINUOUS
0
VERTEX
8
8
10
2825.1191
20
5542.4548
0
VERTEX
8
8
10
2821.4594
20
5551.7611
0
SEQEND
0
POLYLINE
8
8
62
8
66
1
6
CONTINUOUS
0
VERTEX
8
8
10
3752.8039
20
5913.1938
0
VERTEX
8
8
10
3742.8039
20
5913.1615
0
SEQEND
0
TEXT
8
19
62
3
10
-2.9342
20
5722.9630
40
12.0000
50
0.0000
1
3
0
TEXT
8
19
62
3
10
3741.8039
20
5913.1583
40
12.0000
50
0.0000
1
R2
0
ENDBLK
0
BLOCK
2
Panel6
10
0
20
0
30
0
70
0
0
POLYLINE
8
1
62
1
66
1
6
CONTINUOUS
70
1
0
VERTEX
8
1
10
3476.5027
20
6722.5700
0
VERTEX
8
1
10
3446.9362
20
6722.4556
0
VERTEX
8
1
10
3399.0192
20
6722.2633
0
VERTEX
8
1
10
3340.9238
20
6722.0301
0
VERTEX
8
1
10
3275.4813
20
6721.7687
0
VERTEX
8
1
10
3204.3183
20
6721.4816
0
VERTEX
8
1
10
3128.4607
20
6721.1739
0
VERTEX
8
1
10
3048.6476
20
6720.8627
0
VERTEX
8
1
10
2965.4078
20
6720.5552
0
VERTEX
8
1
10
2879.1232
20
6720.2539
0
VERTEX
8
1
10
2790.0765
20
6719.9645
0
VERTEX
8
1
10
2698.4965
20
6719.6830
0
VERTEX
8
1
10
2604.5030
20
6719.4269
0
VERTEX
8
1
10
2508.2361
20
6719.1919
0
VERTEX
8
1
10
2409.7608
20
6718.9857
0
VERTEX
8
1
10
2309.1337
20
6718.8044
0
VERTEX
8
1
10
2206.3971
20
6718.6606
0
VERTEX
8
1
10
2101.5755
20
6718.5500
0
VERTEX
8
1
10
1994.6932
20
6718.4695
0
VERTEX
8
1
10
1885.7356
20
6718.4336
0
VERTEX
8
1
10
1774.7467
20
6718.4324
0
VERTEX
8
1
10
1661.6858
20
6718.4831
0
VERTEX
8
1
10
1546.5483
20
6718.5761
0
VERTEX
8
1
10
1429.3128
20
6718.7054
0
VERTEX
8
1
10
1309.9667
20
6718.8899
0
VERTEX
8
1
10
1188.4912
20
6719.1017
0
VERTEX
8
1
10
1064.8858
20
6719.3635
0
VERTEX
8
1
10
939.1417
20
6719.6604
0
VERTEX
8
1
10
811.2674
20
6719.9958
0
VERTEX
8
1
10
681.2673
20
6720.3575
0
VERTEX
8
1
10
549.1641
20
6720.7516
0
VERTEX
8
1
10
414.9483
20
6721.1697
0
VERTEX
8
1
10
278.6603
20
6721.6199
0
VERTEX
8
1
10
140.3208
20
6722.0811
0
VERTEX
8
1
10
-0.0521
20
6722.5700
0
VERTEX
8
1
10
0.0156
20
6772.2892
0
VERTEX
8
1
10
0.1243
20
6862.5253
0
VERTEX
8
1
10
0.1848
20
6933.2222
0
VERTEX
8
1
10
0.2086
20
6996.5423
0
VERTEX
8
1
10
0.2316
20
7065.5023
0
VERTEX
8
1
10
0.2295
20
7135.5671
0
VERTEX
8
1
10
0.2073
20
7204.1403
0
VERTEX
8
1
10
0.1641
20
7272.6074
0
VERTEX
8
1
10
0.1085
20
7341.4698
0
VERTEX
8
1
10
0.0261
20
7410.3970
0
VERTEX
8
1
10
-0.0682
20
7479.0919
0
VERTEX
8
1
10
-0.1792
20
7547.4875
0
VERTEX
8
1
10
-0.3227
20
7616.6925
0
VERTEX
8
1
10
-0.4786
20
7686.7367
0
VERTEX
8
1
10
-0.6354
20
7753.0239
0
VERTEX
8
1
10
-0.8106
20
7817.8420
0
VERTEX
8
1
10
-1.0693
20
7899.3841
0
VERTEX
8
1
10
-1.3619
20
7987.4293
0
VERTEX
8
1
10
-1.5495
20
8029.2954
0
VERTEX
8
1
10
-1.6615
20
8054.2952
0
VERTEX
8
1
10
115.7098
20
8055.0474
0
VERTEX
8
1
10
231.4358
20
8055.7830
0
VERTEX
8
1
10
345.4371
20
8056.4944
0
VERTEX
8
1
10
457.7128
20
8057.1879
0
VERTEX
8
1
10
568.2667
20
8057.8485
0
VERTEX
8
1
10
677.0557
20
8058.4871
0
VERTEX
8
1
10
784.0959
20
8059.1033
0
VERTEX
8
1
10
889.3873
20
8059.6768
0
VERTEX
8
1
10
992.9118
20
8060.2290
0
VERTEX
8
1
10
1094.6838
20
8060.7423
0
VERTEX
8
1
10
1194.7089
20
8061.2226
0
VERTEX
8
1
10
1292.9939
20
8061.6613
0
VERTEX
8
1
10
1389.5510
20
8062.0641
0
VERTEX
8
1
10
1484.4088
20
8062.4307
0
VERTEX
8
1
10
1577.5944
20
8062.7601
0
VERTEX
8
1
10
1669.1748
20
8063.0335
0
VERTEX
8
1
10
1759.1229
20
8063.2743
0
VERTEX
8
1
10
1847.4396
20
8063.4819
0
VERTEX
8
1
10
1934.1113
20
8063.6539
0
VERTEX
8
1
10
2019.1359
20
8063.7951
0
VERTEX
8
1
10
2102.4634
20
8063.9127
0
VERTEX
8
1
10
2184.0856
20
8063.9976
0
VERTEX
8
1
10
2263.9437
20
8064.0576
0
VERTEX
8
1
10
2341.9360
20
8064.1039
0
VERTEX
8
1
10
2417.9810
20
8064.1208
0
VERTEX
8
1
10
2491.8937
20
8064.1246
0
VERTEX
8
1
10
2563.4915
20
8064.1043
0
VERTEX
8
1
10
2632.4386
20
8064.0824
0
VERTEX
8
1
10
2698.2999
20
8064.0551
0
VERTEX
8
1
10
2760.4609
20
8064.0135
0
VERTEX
8
1
10
2817.9755
20
8063.9812
0
VERTEX
8
1
10
2869.3554
20
8063.9414
0
VERTEX
8
1
10
2912.0238
20
8063.9180
0
VERTEX
8
1
10
2928.1921
20
8063.9031
0
VERTEX
8
1
10
2938.4683
20
8038.8937
0
VERTEX
8
1
10
2968.0559
20
7966.8848
0
VERTEX
8
1
10
2996.8131
20
7896.8380
0
VERTEX
8
1
10
3023.0532
20
7832.8707
0
VERTEX
8
1
10
3052.1218
20
7761.9896
0
VERTEX
8
1
10
3080.6781
20
7692.3251
0
VERTEX
8
1
10
3108.8631
20
7623.5351
0
VERTEX
8
1
10
3137.2452
20
7554.1882
0
VERTEX
8
1
10
3165.6197
20
7484.8597
0
VERTEX
8
1
10
3193.9338
20
7415.6254
0
VERTEX
8
1
10
3222.2484
20
7346.3372
0
VERTEX
8
1
10
3250.6093
20
7277.0680
0
VERTEX
8
1
10
3278.8369
20
7207.7547
0
VERTEX
8
1
10
3306.9074
20
7138.3767
0
VERTEX
8
1
10
3335.5653
20
7068.9379
0
VERTEX
8
1
10
3364.4098
20
6998.1808
0
VERTEX
8
1
10
3391.4293
20
6931.6144
0
VERTEX
8
1
10
3418.1989
20
6865.8644
0
VERTEX
8
1
10
3453.9435
20
6778.0280
0
VERTEX
8
1
10
3476.5027
20
6722.5700
0
SEQEND
0
POLYLINE
8
8
62
8
66
1
6
CONTINUOUS
0
VERTEX
8
8
10
-1.5495
20
8029.2954
0
VERTEX
8
8
10
115.8700
20
8030.0479
0
VERTEX
8
8
10
231.5947
20
8030.7835
0
VERTEX
8
8
10
345.5931
20
8031.4949
0
VERTEX
8
8
10
457.8672
20
8032.1884
0
VERTEX
8
8
10
568.4160
20
8032.8489
0
VERTEX
8
8
10
677.2024
20
8033.4875
0
VERTEX
8
8
10
784.2399
20
8034.1037
0
VERTEX
8
8
10
889.5235
20
8034.6771
0
VERTEX
8
8
10
993.0452
20
8035.2294
0
VERTEX
8
8
10
1094.8099
20
8035.7427
0
VERTEX
8
8
10
1194.8290
20
8036.2229
0
VERTEX
8
8
10
1293.1055
20
8036.6615
0
VERTEX
8
8
10
1389.6553
20
8037.0643
0
VERTEX
8
8
10
1484.5054
20
8037.4309
0
VERTEX
8
8
10
1577.6828
20
8037.7603
0
VERTEX
8
8
10
1669.2495
20
8038.0336
0
VERTEX
8
8
10
1759.1899
20
8038.2744
0
VERTEX
8
8
10
1847.4984
20
8038.4820
0
VERTEX
8
8
10
1934.1609
20
8038.6540
0
VERTEX
8
8
10
2019.1774
20
8038.7951
0
VERTEX
8
8
10
2102.4987
20
8038.9127
0
VERTEX
8
8
10
2184.1116
20
8038.9976
0
VERTEX
8
8
10
2263.9625
20
8039.0576
0
VERTEX
8
8
10
2341.9508
20
8039.1039
0
VERTEX
8
8
10
2417.9866
20
8039.1208
0
VERTEX
8
8
10
2491.8950
20
8039.1246
0
VERTEX
8
8
10
2563.4844
20
8039.1043
0
VERTEX
8
8
10
2632.4306
20
8039.0824
0
VERTEX
8
8
10
2698.2895
20
8039.0551
0
VERTEX
8
8
10
2760.4442
20
8039.0135
0
VERTEX
8
8
10
2817.9615
20
8038.9812
0
VERTEX
8
8
10
2869.3361
20
8038.9415
0
VERTEX
8
8
10
2912.0101
20
8038.9180
0
VERTEX
8
8
10
2938.4683
20
8038.8937
0
SEQEND
0
TEXT
8
19
62
3
10
24.9513
20
6723.4830
40
12.0000
50
-0.1996
1
6
0
POLYLINE
8
8
62
8
66
1
6
CONTINUOUS
0
VERTEX
8
8
10
3212.6688
20
7050.0108
0
VERTEX
8
8
10
3104.6019
20
7007.7857
0
VERTEX
8
8
10
2999.7122
20
6966.8247
0
VERTEX
8
8
10
2897.4661
20
6926.8911
0
VERTEX
8
8
10
2797.5046
20
6887.8749
0
VERTEX
8
8
10
2699.3022
20
6849.5659
0
VERTEX
8
8
10
2602.4159
20
6811.7939
0
VERTEX
8
8
10
2506.6216
20
6774.4867
0
VERTEX
8
8
10
2411.7287
20
6737.5510
0
SEQEND
0
POLYLINE
8
8
62
8
66
1
6
CONTINUOUS
0
VERTEX
8
8
10
3325.2306
20
7093.9791
0
VERTEX
8
8
10
3315.2307
20
7093.9404
0
SEQEND
0
ENDBLK
0
BLOCK
2
Panel7
10
0
20
0
30
0
70
0
0
POLYLINE
8
1
62
1
66
1
6
CONTINUOUS
70
1
0
VERTEX
8
1
10
2939.9995
20
8114.3343
0
VERTEX
8
1
10
2905.3510
20
8114.2160
0
VERTEX
8
1
10
2849.7273
20
8114.0313
0
VERTEX
8
1
10
2783.1111
20
8113.8020
0
VERTEX
8
1
10
2708.9619
20
8113.5539
0
VERTEX
8
1
10
2629.1491
20
8113.2911
0
VERTEX
8
1
10
2544.8357
20
8113.0283
0
VERTEX
8
1
10
2456.7797
20
8112.7656
0
VERTEX
8
1
10
2365.4481
20
8112.5041
0
VERTEX
8
1
10
2271.1681
20
8112.2653
0
VERTEX
8
1
10
2174.1286
20
8112.0486
0
VERTEX
8
1
10
2074.5071
20
8111.8515
0
VERTEX
8
1
10
1972.3700
20
8111.6822
0
VERTEX
8
1
10
1867.7690
20
8111.5455
0
VERTEX
8
1
10
1760.7516
20
8111.4470
0
VERTEX
8
1
10
1651.3271
20
8111.3797
0
VERTEX
8
1
10
1539.5208
20
8111.3540
0
VERTEX
8
1
10
1425.2866
20
8111.3885
0
VERTEX
8
1
10
1308.5575
20
8111.4598
0
VERTEX
8
1
10
1189.2843
20
8111.5755
0
VERTEX
8
1
10
1067.4528
20
8111.7332
0
VERTEX
8
1
10
943.0443
20
8111.9289
0
VERTEX
8
1
10
816.0355
20
8112.1548
0
VERTEX
8
1
10
686.4351
20
8112.4138
0
VERTEX
8
1
10
554.2520
20
8112.7097
0
VERTEX
8
1
10
419.4969
20
8113.0363
0
VERTEX
8
1
10
282.1807
20
8113.4186
0
VERTEX
8
1
10
142.3315
20
8113.8564
0
VERTEX
8
1
10
-0.0343
20
8114.3343
0
VERTEX
8
1
10
0.0508
20
8148.8399
0
VERTEX
8
1
10
0.1339
20
8220.8403
0
VERTEX
8
1
10
0.0504
20
8286.7447
0
VERTEX
8
1
10
0.0306
20
8339.4854
0
VERTEX
8
1
10
0.5143
20
8392.1833
0
VERTEX
8
1
10
0.2550
20
8448.4449
0
VERTEX
8
1
10
2.2923
20
8488.1664
0
VERTEX
8
1
10
6.3716
20
8567.9678
0
VERTEX
8
1
10
9.8949
20
8637.0744
0
VERTEX
8
1
10
12.7454
20
8693.4183
0
VERTEX
8
1
10
15.6580
20
8751.4081
0
VERTEX
8
1
10
18.7625
20
8813.3435
0
VERTEX
8
1
10
21.8481
20
8875.3252
0
VERTEX
8
1
10
24.8629
20
8936.0789
0
VERTEX
8
1
10
27.8350
20
8996.3291
0
VERTEX
8
1
10
30.8115
20
9056.9915
0
VERTEX
8
1
10
33.8509
20
9119.1920
0
VERTEX
8
1
10
36.8748
20
9181.4834
0
VERTEX
8
1
10
39.6546
20
9238.8464
0
VERTEX
8
1
10
42.2950
20
9293.7218
0
VERTEX
8
1
10
45.6759
20
9364.4986
0
VERTEX
8
1
10
48.4302
20
9423.2784
0
VERTEX
8
1
10
49.6021
20
9448.2877
0
VERTEX
8
1
10
160.8720
20
9449.1051
0
VERTEX
8
1
10
271.3233
20
9449.8934
0
VERTEX
8
1
10
379.6654
20
9450.6192
0
VERTEX
8
1
10
485.9449
20
9451.2916
0
VERTEX
8
1
10
590.1827
20
9451.9252
0
VERTEX
8
1
10
692.3967
20
9452.5034
0
VERTEX
8
1
10
792.6249
20
9453.0354
0
VERTEX
8
1
10
890.8605
20
9453.5251
0
VERTEX
8
1
10
987.1325
20
9453.9790
0
VERTEX
8
1
10
1081.4687
20
9454.3827
0
VERTEX
8
1
10
1173.8737
20
9454.7598
0
VERTEX
8
1
10
1264.3928
20
9455.0880
0
VERTEX
8
1
10
1353.0170
20
9455.3935
0
VERTEX
8
1
10
1439.7824
20
9455.6424
0
VERTEX
8
1
10
1524.7066
20
9455.8619
0
VERTEX
8
1
10
1607.8355
20
9456.0385
0
VERTEX
8
1
10
1689.1596
20
9456.1775
0
VERTEX
8
1
10
1768.6535
20
9456.3006
0
VERTEX
8
1
10
1846.2922
20
9456.3804
0
VERTEX
8
1
10
1921.9592
20
9456.4428
0
VERTEX
8
1
10
1995.5381
20
9456.4845
0
VERTEX
8
1
10
2066.7892
20
9456.5003
0
VERTEX
8
1
10
2135.2930
20
9456.5024
0
VERTEX
8
1
10
2200.4472
20
9456.5026
0
VERTEX
8
1
10
2261.3302
20
9456.4862
0
VERTEX
8
1
10
2316.3083
20
9456.4653
0
VERTEX
8
1
10
2362.4626
20
9456.4410
0
VERTEX
8
1
10
2380.8832
20
9456.4327
0
VERTEX
8
1
10
2391.3416
20
9431.4279
0
VERTEX
8
1
10
2420.3202
20
9362.1432
0
VERTEX
8
1
10
2449.2578
20
9292.8529
0
VERTEX
8
1
10
2478.2823
20
9223.5880
0
VERTEX
8
1
10
2507.2569
20
9154.3131
0
VERTEX
8
1
10
2536.1891
20
9085.0098
0
VERTEX
8
1
10
2565.1174
20
9015.7157
0
VERTEX
8
1
10
2594.0404
20
8946.4085
0
VERTEX
8
1
10
2622.9411
20
8877.1029
0
VERTEX
8
1
10
2651.8363
20
8807.7843
0
VERTEX
8
1
10
2680.7016
20
8738.4856
0
VERTEX
8
1
10
2709.5638
20
8669.1423
0
VERTEX
8
1
10
2738.4605
20
8599.7160
0
VERTEX
8
1
10
2767.2005
20
8530.6144
0
VERTEX
8
1
10
2795.9813
20
8461.3888
0
VERTEX
8
1
10
2825.3961
20
8390.5859
0
VERTEX
8
1
10
2853.3107
20
8323.3395
0
VERTEX
8
1
10
2880.5650
20
8257.6814
0
VERTEX
8
1
10
2916.9060
20
8170.0369
0
VERTEX
8
1
10
2939.9995
20
8114.3343
0
SEQEND
0
POLYLINE
8
8
62
8
66
1
6
CONTINUOUS
0
VERTEX
8
8
10
48.4302
20
9423.2784
0
VERTEX
8
8
10
161.0556
20
9424.1058
0
VERTEX
8
8
10
271.5017
20
9424.8940
0
VERTEX
8
8
10
379.8329
20
9425.6198
0
VERTEX
8
8
10
486.1031
20
9426.2921
0
VERTEX
8
8
10
590.3346
20
9426.9257
0
VERTEX
8
8
10
692.5381
20
9427.5038
0
VERTEX
8
8
10
792.7576
20
9428.0357
0
VERTEX
8
8
10
890.9851
20
9428.5255
0
VERTEX
8
8
10
987.2504
20
9428.9792
0
VERTEX
8
8
10
1081.5757
20
9429.3829
0
VERTEX
8
8
10
1173.9757
20
9429.7600
0
VERTEX
8
8
10
1264.4834
20
9430.0882
0
VERTEX
8
8
10
1353.1031
20
9430.3937
0
VERTEX
8
8
10
1439.8541
20
9430.6425
0
VERTEX
8
8
10
1524.7712
20
9430.8619
0
VERTEX
8
8
10
1607.8886
20
9431.0385
0
VERTEX
8
8
10
1689.2024
20
9431.1775
0
VERTEX
8
8
10
1768.6922
20
9431.3007
0
VERTEX
8
8
10
1846.3179
20
9431.3804
0
VERTEX
8
8
10
1921.9798
20
9431.4428
0
VERTEX
8
8
10
1995.5523
20
9431.4845
0
VERTEX
8
8
10
2066.7948
20
9431.5003
0
VERTEX
8
8
10
2135.2938
20
9431.5024
0
VERTEX
8
8
10
2200.4473
20
9431.5026
0
VERTEX
8
8
10
2261.3235
20
9431.4862
0
VERTEX
8
8
10
2316.2988
20
9431.4653
0
VERTEX
8
8
10
2362.4494
20
9431.4410
0
VERTEX
8
8
10
2391.3416
20
9431.4279
0
SEQEND
0
TEXT
8
19
62
3
10
24.9689
20
8115.2504
40
12.0000
50
-0.1923
1
7
0
POLYLINE
8
8
62
8
66
1
6
CONTINUOUS
0
VERTEX
8
8
10
2294.6860
20
9325.1191
0
VERTEX
8
8
10
2181.7415
20
9282.1549
0
VERTEX
8
8
10
2074.7323
20
9241.4236
0
VERTEX
8
8
10
1972.1544
20
9202.3575
0
VERTEX
8
8
10
1872.3378
20
9164.3313
0
VERTEX
8
8
10
1774.6663
20
9127.0631
0
VERTEX
8
8
10
1678.7781
20
9090.4848
0
VERTEX
8
8
10
1583.9346
20
9054.2741
0
VERTEX
8
8
10
1489.9065
20
9018.3540
0
VERTEX
8
8
10
1396.4766
20
8982.6577
0
VERTEX
8
8
10
1303.4692
20
8947.0882
0
VERTEX
8
8
10
1210.7196
20
8911.6051
0
VERTEX
8
8
10
1118.1139
20
8876.1798
0
VERTEX
8
8
10
1025.5577
20
8840.7759
0
VERTEX
8
8
10
932.9978
20
8805.3532
0
VERTEX
8
8
10
840.3802
20
8769.9082
0
VERTEX
8
8
10
747.6899
20
8734.3815
0
VERTEX
8
8
10
654.8236
20
8698.8665
0
VERTEX
8
8
10
561.7624
20
8663.2990
0
VERTEX
8
8
10
468.5824
20
8627.6739
0
VERTEX
8
8
10
375.2418
20
8591.9703
0
VERTEX
8
8
10
281.7159
20
8556.2150
0
VERTEX
8
8
10
187.9656
20
8520.4010
0
VERTEX
8
8
10
94.0361
20
8484.5183
0
SEQEND
0
POLYLINE
8
8
62
8
66
1
6
CONTINUOUS
0
VERTEX
8
8
10
0.2550
20
8448.4449
0
VERTEX
8
8
10
10.2549
20
8448.4790
0
SEQEND
0
POLYLINE
8
8
62
8
66
1
6
CONTINUOUS
0
VERTEX
8
8
10
2416.4420
20
9371.4155
0
VERTEX
8
8
10
2406.4421
20
9371.3813
0
SEQEND
0
TEXT
8
19
62
3
10
11.2549
20
8448.4824
40
12.0000
50
0.0000
1
2
0
ENDBLK
0
BLOCK
2
Panel8
10
0
20
0
30
0
70
0
0
POLYLINE
8
1
62
1
66
1
6
CONTINUOUS
70
1
0
VERTEX
8
1
10
2342.8748
20
9508.9246
0
VERTEX
8
1
10
2304.9387
20
9508.7523
0
VERTEX
8
1
10
2244.8040
20
9508.4818
0
VERTEX
8
1
10
2173.7313
20
9508.1749
0
VERTEX
8
1
10
2095.5488
20
9507.8420
0
VERTEX
8
1
10
2012.2579
20
9507.5188
0
VERTEX
8
1
10
1924.9630
20
9507.2037
0
VERTEX
8
1
10
1834.3231
20
9506.9181
0
VERTEX
8
1
10
1740.6939
20
9506.6697
0
VERTEX
8
1
10
1644.2650
20
9506.4650
0
VERTEX
8
1
10
1545.1406
20
9506.3105
0
VERTEX
8
1
10
1443.3322
20
9506.1985
0
VERTEX
8
1
10
1338.8366
20
9506.1384
0
VERTEX
8
1
10
1231.5976
20
9506.1324
0
VERTEX
8
1
10
1121.5627
20
9506.1467
0
VERTEX
8
1
10
1008.7043
20
9506.2278
0
VERTEX
8
1
10
893.0060
20
9506.3552
0
VERTEX
8
1
10
774.4013
20
9506.5538
0
VERTEX
8
1
10
652.8729
20
9506.7943
0
VERTEX
8
1
10
528.3810
20
9507.1054
0
VERTEX
8
1
10
400.8956
20
9507.4719
0
VERTEX
8
1
10
270.3762
20
9507.9012
0
VERTEX
8
1
10
136.7688
20
9508.3839
0
VERTEX
8
1
10
-0.0483
20
9508.9246
0
VERTEX
8
1
10
2.6189
20
9558.2583
0
VERTEX
8
1
10
7.5075
20
9648.9795
0
VERTEX
8
1
10
11.3456
20
9720.6847
0
VERTEX
8
1
10
14.7066
20
9784.0649
0
VERTEX
8
1
10
18.3498
20
9852.9772
0
VERTEX
8
1
10
22.0568
20
9923.4233
0
VERTEX
8
1
10
25.6609
20
9992.3523
0
VERTEX
8
1
10
29.2300
20
10061.0194
0
VERTEX
8
1
10
32.8024
20
10130.1080
0
VERTEX
8
1
10
36.3618
20
10199.3099
0
VERTEX
8
1
10
39.8972
20
10268.3298
0
VERTEX
8
1
10
43.3864
20
10336.9541
0
VERTEX
8
1
10
46.8919
20
10406.1560
0
VERTEX
8
1
10
50.4299
20
10476.6744
0
VERTEX
8
1
10
53.8269
20
10544.5076
0
VERTEX
8
1
10
56.9891
20
10608.0882
0
VERTEX
8
1
10
60.7459
20
10684.2965
0
VERTEX
8
1
10
65.1835
20
10774.7723
0
VERTEX
8
1
10
67.3867
20
10820.6746
0
VERTEX
8
1
10
68.5871
20
10845.6832
0
VERTEX
8
1
10
166.1696
20
10846.3406
0
VERTEX
8
1
10
262.9937
20
10846.9733
0
VERTEX
8
1
10
357.7033
20
10847.5597
0
VERTEX
8
1
10
450.2926
20
10848.1082
0
VERTEX
8
1
10
540.7814
20
10848.6038
0
VERTEX
8
1
10
629.1719
20
10849.0559
0
VERTEX
8
1
10
715.5054
20
10849.4483
0
VERTEX
8
1
10
799.7865
20
10849.8100
0
VERTEX
8
1
10
882.0917
20
10850.1156
0
VERTEX
8
1
10
962.4258
20
10850.3818
0
VERTEX
8
1
10
1040.8139
20
10850.6154
0
VERTEX
8
1
10
1117.2546
20
10850.8101
0
VERTEX
8
1
10
1191.7969
20
10850.9741
0
VERTEX
8
1
10
1264.4565
20
10851.1013
0
VERTEX
8
1
10
1335.2187
20
10851.2134
0
VERTEX
8
1
10
1404.0441
20
10851.2893
0
VERTEX
8
1
10
1470.8042
20
10851.3518
0
VERTEX
8
1
10
1535.3017
20
10851.3712
0
VERTEX
8
1
10
1597.0148
20
10851.3896
0
VERTEX
8
1
10
1655.1966
20
10851.3775
0
VERTEX
8
1
10
1708.3064
20
10851.3654
0
VERTEX
8
1
10
1753.4153
20
10851.3479
0
VERTEX
8
1
10
1771.2585
20
10851.3366
0
VERTEX
8
1
10
1781.9779
20
10826.3298
0
VERTEX
8
1
10
1805.6183
20
10771.1799
0
VERTEX
8
1
10
1843.2703
20
10683.3149
0
VERTEX
8
1
10
1871.4637
20
10617.4540
0
VERTEX
8
1
10
1900.1226
20
10550.4328
0
VERTEX
8
1
10
1930.3459
20
10479.6868
0
VERTEX
8
1
10
1959.9173
20
10410.4674
0
VERTEX
8
1
10
1989.3820
20
10341.3985
0
VERTEX
8
1
10
2018.9663
20
10271.9677
0
VERTEX
8
1
10
2048.5156
20
10202.6198
0
VERTEX
8
1
10
2078.0103
20
10133.3248
0
VERTEX
8
1
10
2107.5005
20
10063.9629
0
VERTEX
8
1
10
2137.0294
20
9994.5088
0
VERTEX
8
1
10
2166.3874
20
9925.3842
0
VERTEX
8
1
10
2195.7903
20
9856.1267
0
VERTEX
8
1
10
2225.8240
20
9785.2901
0
VERTEX
8
1
10
2254.3289
20
9718.0416
0
VERTEX
8
1
10
2282.1688
20
9652.3250
0
VERTEX
8
1
10
2319.3019
20
9564.6109
0
VERTEX
8
1
10
2342.8748
20
9508.9246
0
SEQEND
0
POLYLINE
8
8
62
8
66
1
6
CONTINUOUS
0
VERTEX
8
8
10
67.3867
20
10820.6746
0
VERTEX
8
8
10
166.3380
20
10821.3411
0
VERTEX
8
8
10
263.1570
20
10821.9738
0
VERTEX
8
8
10
357.8580
20
10822.5601
0
VERTEX
8
8
10
450.4407
20
10823.1086
0
VERTEX
8
8
10
540.9183
20
10823.6042
0
VERTEX
8
8
10
629.2998
20
10824.0562
0
VERTEX
8
8
10
715.6190
20
10824.4485
0
VERTEX
8
8
10
799.8938
20
10824.8103
0
VERTEX
8
8
10
882.1845
20
10825.1157
0
VERTEX
8
8
10
962.5087
20
10825.3819
0
VERTEX
8
8
10
1040.8884
20
10825.6155
0
VERTEX
8
8
10
1117.3183
20
10825.8102
0
VERTEX
8
8
10
1191.8520
20
10825.9742
0
VERTEX
8
8
10
1264.5003
20
10826.1014
0
VERTEX
8
8
10
1335.2583
20
10826.2134
0
VERTEX
8
8
10
1404.0716
20
10826.2893
0
VERTEX
8
8
10
1470.8276
20
10826.3518
0
VERTEX
8
8
10
1535.3093
20
10826.3712
0
VERTEX
8
8
10
1597.0223
20
10826.3896
0
VERTEX
8
8
10
1655.1915
20
10826.3775
0
VERTEX
8
8
10
1708.3008
20
10826.3654
0
VERTEX
8
8
10
1753.4056
20
10826.3479
0
VERTEX
8
8
10
1781.9779
20
10826.3298
0
SEQEND
0
TEXT
8
19
62
3
10
24.9555
20
9509.8257
40
12.0000
50
-0.2264
1
8
0
ENDBLK
0
BLOCK
2
Panel9
10
0
20
0
30
0
70
0
0
POLYLINE
8
1
62
1
66
1
6
CONTINUOUS
70
1
0
VERTEX
8
1
10
1714.5850
20
10900.9309
0
VERTEX
8
1
10
1677.4291
20
10900.8171
0
VERTEX
8
1
10
1619.2956
20
10900.6342
0
VERTEX
8
1
10
1551.5374
20
10900.4420
0
VERTEX
8
1
10
1477.8524
20
10900.2440
0
VERTEX
8
1
10
1399.9761
20
10900.0603
0
VERTEX
8
1
10
1318.7549
20
10899.8868
0
VERTEX
8
1
10
1234.5765
20
10899.7379
0
VERTEX
8
1
10
1147.5867
20
10899.6071
0
VERTEX
8
1
10
1057.8559
20
10899.5023
0
VERTEX
8
1
10
965.3319
20
10899.4370
0
VERTEX
8
1
10
869.9457
20
10899.4016
0
VERTEX
8
1
10
771.7142
20
10899.4231
0
VERTEX
8
1
10
670.5907
20
10899.4775
0
VERTEX
8
1
10
566.4927
20
10899.5914
0
VERTEX
8
1
10
459.3647
20
10899.7462
0
VERTEX
8
1
10
349.1691
20
10899.9588
0
VERTEX
8
1
10
235.8906
20
10900.2233
0
VERTEX
8
1
10
119.4998
20
10900.5463
0
VERTEX
8
1
10
-0.0161
20
10900.9309
0
VERTEX
8
1
10
1.0520
20
10920.6711
0
VERTEX
8
1
10
3.7010
20
10969.8575
0
VERTEX
8
1
10
7.1149
20
11033.4505
0
VERTEX
8
1
10
10.5450
20
11097.7379
0
VERTEX
8
1
10
13.5148
20
11153.6302
0
VERTEX
8
1
10
15.6118
20
11193.0737
0
VERTEX
8
1
10
16.3958
20
11208.0039
0
VERTEX
8
1
10
20.1447
20
11250.0990
0
VERTEX
8
1
10
24.8552
20
11292.1005
0
VERTEX
8
1
10
29.9201
20
11334.0484
0
VERTEX
8
1
10
34.7326
20
11376.0364
0
VERTEX
8
1
10
39.2259
20
11418.0705
0
VERTEX
8
1
10
43.5837
20
11460.0941
0
VERTEX
8
1
10
47.9767
20
11502.1101
0
VERTEX
8
1
10
52.4494
20
11544.1145
0
VERTEX
8
1
10
56.9687
20
11586.1374
0
VERTEX
8
1
10
61.4716
20
11628.2290
0
VERTEX
8
1
10
65.9485
20
11670.3318
0
VERTEX
8
1
10
70.3861
20
11712.3439
0
VERTEX
8
1
10
74.7910
20
11754.1389
0
VERTEX
8
1
10
79.1918
20
11795.8354
0
VERTEX
8
1
10
83.6107
20
11837.8401
0
VERTEX
8
1
10
88.1000
20
11880.5929
0
VERTEX
8
1
10
92.6455
20
11923.8839
0
VERTEX
8
1
10
97.0829
20
11966.2506
0
VERTEX
8
1
10
101.2409
20
12006.0560
0
VERTEX
8
1
10
105.1293
20
12043.3577
0
VERTEX
8
1
10
109.2842
20
12083.2801
0
VERTEX
8
1
10
114.3334
20
12131.8871
0
VERTEX
8
1
10
120.1563
20
12187.9594
0
VERTEX
8
1
10
123.0817
20
12216.8090
0
VERTEX
8
1
10
125.6183
20
12241.8242
0
VERTEX
8
1
10
193.2818
20
12242.2202
0
VERTEX
8
1
10
261.8336
20
12242.5859
0
VERTEX
8
1
10
328.6186
20
12242.8995
0
VERTEX
8
1
10
393.6551
20
12243.1826
0
VERTEX
8
1
10
456.9595
20
12243.4358
0
VERTEX
8
1
10
518.5577
20
12243.6620
0
VERTEX
8
1
10
578.4204
20
12243.8668
0
VERTEX
8
1
10
636.5752
20
12244.0473
0
VERTEX
8
1
10
693.0201
20
12244.2012
0
VERTEX
8
1
10
747.8663
20
12244.3173
0
VERTEX
8
1
10
801.0877
20
12244.4207
0
VERTEX
8
1
10
852.7544
20
12244.4971
0
VERTEX
8
1
10
902.8444
20
12244.5606
0
VERTEX
8
1
10
951.2957
20
12244.5985
0
VERTEX
8
1
10
997.8860
20
12244.6198
0
VERTEX
8
1
10
1042.0998
20
12244.6260
0
VERTEX
8
1
10
1082.8945
20
12244.6182
0
VERTEX
8
1
10
1117.9648
20
12244.6078
0
VERTEX
8
1
10
1129.4312
20
12244.6000
0
VERTEX
8
1
10
1140.4123
20
12219.5924
0
VERTEX
8
1
10
1171.1622
20
12149.5652
0
VERTEX
8
1
10
1203.1170
20
12076.7613
0
VERTEX
8
1
10
1231.0181
20
12013.1985
0
VERTEX
8
1
10
1261.9812
20
11942.5377
0
VERTEX
8
1
10
1292.5279
20
11872.5803
0
VERTEX
8
1
10
1322.8048
20
11803.7248
0
VERTEX
8
1
10
1353.2219
20
11734.3314
0
VERTEX
8
1
10
1383.0300
20
11664.7352
0
VERTEX
8
1
10
1413.4422
20
11595.4049
0
VERTEX
8
1
10
1443.8388
20
11526.1114
0
VERTEX
8
1
10
1473.9930
20
11456.6722
0
VERTEX
8
1
10
1504.1809
20
11387.1278
0
VERTEX
8
1
10
1534.2379
20
11317.9189
0
VERTEX
8
1
10
1564.2930
20
11248.6115
0
VERTEX
8
1
10
1594.9935
20
11177.6987
0
VERTEX
8
1
10
1624.1868
20
11110.2527
0
VERTEX
8
1
10
1652.5833
20
11044.5652
0
VERTEX
8
1
10
1690.4508
20
10956.8576
0
VERTEX
8
1
10
1714.5850
20
10900.9309
0
SEQEND
0
POLYLINE
8
8
62
8
66
1
6
CONTINUOUS
0
VERTEX
8
8
10
123.0817
20
12216.8090
0
VERTEX
8
8
10
193.4281
20
12217.2207
0
VERTEX
8
8
10
261.9669
20
12217.5862
0
VERTEX
8
8
10
328.7359
20
12217.8997
0
VERTEX
8
8
10
393.7639
20
12218.1828
0
VERTEX
8
8
10
457.0595
20
12218.4360
0
VERTEX
8
8
10
518.6495
20
12218.6622
0
VERTEX
8
8
10
578.5059
20
12218.8670
0
VERTEX
8
8
10
636.6527
20
12219.0474
0
VERTEX
8
8
10
693.0883
20
12219.2013
0
VERTEX
8
8
10
747.9192
20
12219.3173
0
VERTEX
8
8
10
801.1363
20
12219.4207
0
VERTEX
8
8
10
852.7914
20
12219.4971
0
VERTEX
8
8
10
902.8761
20
12219.5606
0
VERTEX
8
8
10
951.3152
20
12219.5985
0
VERTEX
8
8
10
997.8975
20
12219.6198
0
VERTEX
8
8
10
1042.1033
20
12219.6260
0
VERTEX
8
8
10
1082.8898
20
12219.6182
0
VERTEX
8
8
10
1117.9574
20
12219.6078
0
VERTEX
8
8
10
1140.4123
20
12219.5924
0
SEQEND
0
TEXT
8
19
62
3
10
24.9870
20
10901.8504
40
12.0000
50
-0.1844
1
9
0
POLYLINE
8
8
62
8
66
1
6
CONTINUOUS
0
VERTEX
8
8
10
1271.4457
20
11680.1414
0
VERTEX
8
8
10
1189.1408
20
11649.1590
0
VERTEX
8
8
10
1112.3936
20
11620.2829
0
VERTEX
8
8
10
1038.8140
20
11592.5960
0
VERTEX
8
8
10
967.6041
20
11565.7972
0
VERTEX
8
8
10
897.8425
20
11539.5617
0
VERTEX
8
8
10
828.9803
20
11513.6637
0
VERTEX
8
8
10
760.7277
20
11487.9886
0
VERTEX
8
8
10
692.8891
20
11462.4785
0
VERTEX
8
8
10
625.2896
20
11437.0894
0
VERTEX
8
8
10
557.8151
20
11411.7575
0
VERTEX
8
8
10
490.3714
20
11386.4044
0
VERTEX
8
8
10
422.9274
20
11361.0327
0
VERTEX
8
8
10
355.4113
20
11335.6949
0
VERTEX
8
8
10
287.7658
20
11310.3776
0
VERTEX
8
8
10
220.0602
20
11284.9402
0
VERTEX
8
8
10
152.1833
20
11259.5046
0
VERTEX
8
8
10
84.1230
20
11234.0838
0
SEQEND
0
POLYLINE
8
8
62
8
66
1
6
CONTINUOUS
0
VERTEX
8
8
10
16.3958
20
11208.0039
0
VERTEX
8
8
10
26.3957
20
11208.0345
0
SEQEND
0
POLYLINE
8
8
62
8
66
1
6
CONTINUOUS
0
VERTEX
8
8
10
1361.8796
20
11714.1172
0
VERTEX
8
8
10
1351.8797
20
11714.0866
0
SEQEND
0
TEXT
8
19
62
3
10
27.3957
20
11208.0376
40
12.0000
50
0.0000
1
1
0
ENDBLK
0
BLOCK
2
Panel10
10
0
20
0
30
0
70
0
0
POLYLINE
8
1
62
1
66
1
6
CONTINUOUS
70
1
0
VERTEX
8
1
10
1017.3351
20
12292.7932
0
VERTEX
8
1
10
994.8802
20
12292.7718
0
VERTEX
8
1
10
959.8126
20
12292.7321
0
VERTEX
8
1
10
919.0262
20
12292.6932
0
VERTEX
8
1
10
874.8203
20
12292.6519
0
VERTEX
8
1
10
828.2381
20
12292.6133
0
VERTEX
8
1
10
779.7989
20
12292.5806
0
VERTEX
8
1
10
729.7143
20
12292.5482
0
VERTEX
8
1
10
678.0591
20
12292.5313
0
VERTEX
8
1
10
624.8419
20
12292.5173
0
VERTEX
8
1
10
570.0108
20
12292.5214
0
VERTEX
8
1
10
513.5751
20
12292.5198
0
VERTEX
8
1
10
455.4280
20
12292.5216
0
VERTEX
8
1
10
395.5712
20
12292.5286
0
VERTEX
8
1
10
333.9809
20
12292.5461
0
VERTEX
8
1
10
270.6847
20
12292.5722
0
VERTEX
8
1
10
205.6561
20
12292.6093
0
VERTEX
8
1
10
138.8864
20
12292.6633
0
VERTEX
8
1
10
70.3466
20
12292.7201
0
VERTEX
8
1
10
-0.0009
20
12292.7932
0
VERTEX
8
1
10
5.2573
20
12341.9849
0
VERTEX
8
1
10
14.9968
20
12433.3125
0
VERTEX
8
1
10
22.7238
20
12506.0122
0
VERTEX
8
1
10
29.4623
20
12569.6411
0
VERTEX
8
1
10
36.7656
20
12638.6972
0
VERTEX
8
1
10
44.2439
20
12709.6144
0
VERTEX
8
1
10
51.5352
20
12779.0308
0
VERTEX
8
1
10
58.7696
20
12848.0707
0
VERTEX
8
1
10
66.0278
20
12917.5171
0
VERTEX
8
1
10
73.2837
20
12987.1343
0
VERTEX
8
1
10
80.5030
20
13056.5978
0
VERTEX
8
1
10
87.6670
20
13125.6531
0
VERTEX
8
1
10
94.8450
20
13195.0575
0
VERTEX
8
1
10
102.1674
20
13265.9889
0
VERTEX
8
1
10
109.2893
20
13335.1245
0
VERTEX
8
1
10
115.8404
20
13398.7661
0
VERTEX
8
1
10
123.2571
20
13471.2158
0
VERTEX
8
1
10
132.5937
20
13562.5579
0
VERTEX
8
1
10
137.5982
20
13612.1648
0
VERTEX
8
1
10
140.1208
20
13637.1698
0
VERTEX
8
1
10
158.0426
20
13637.2052
0
VERTEX
8
1
10
178.0439
20
13637.2338
0
VERTEX
8
1
10
197.4870
20
13637.2754
0
VERTEX
8
1
10
216.4550
20
13637.3068
0
VERTEX
8
1
10
234.8904
20
13637.3515
0
VERTEX
8
1
10
252.8695
20
13637.3797
0
VERTEX
8
1
10
270.3183
20
13637.4201
0
VERTEX
8
1
10
287.3067
20
13637.4542
0
VERTEX
8
1
10
303.7992
20
13637.4832
0
VERTEX
8
1
10
319.8131
20
13637.5146
0
VERTEX
8
1
10
335.3568
20
13637.5506
0
VERTEX
8
1
10
350.4663
20
13637.5779
0
VERTEX
8
1
10
365.0943
20
13637.6092
0
VERTEX
8
1
10
379.2734
20
13637.6338
0
VERTEX
8
1
10
392.8807
20
13637.6649
0
VERTEX
8
1
10
405.8178
20
13637.6883
0
VERTEX
8
1
10
417.7418
20
13637.7099
0
VERTEX
8
1
10
423.5616
20
13637.7244
0
VERTEX
8
1
10
434.5953
20
13612.7446
0
VERTEX
8
1
10
458.1017
20
13559.5271
0
VERTEX
8
1
10
497.6039
20
13470.1221
0
VERTEX
8
1
10
527.3956
20
13402.7228
0
VERTEX
8
1
10
556.8225
20
13336.1356
0
VERTEX
8
1
10
588.1406
20
13265.2777
0
VERTEX
8
1
10
618.8657
20
13195.7977
0
VERTEX
8
1
10
649.4493
20
13126.6269
0
VERTEX
8
1
10
680.1872
20
13057.0654
0
VERTEX
8
1
10
710.8900
20
12987.5868
0
VERTEX
8
1
10
741.5564
20
12918.1688
0
VERTEX
8
1
10
772.2461
20
12848.6955
0
VERTEX
8
1
10
802.9786
20
12779.1209
0
VERTEX
8
1
10
833.5434
20
12709.8662
0
VERTEX
8
1
10
864.1301
20
12640.5339
0
VERTEX
8
1
10
895.4124
20
12569.6067
0
VERTEX
8
1
10
925.1707
20
12502.1065
0
VERTEX
8
1
10
954.1007
20
12436.4383
0
VERTEX
8
1
10
992.6927
20
12348.7765
0
VERTEX
8
1
10
1017.3351
20
12292.7932
0
SEQEND
0
POLYLINE
8
8
62
8
66
1
6
CONTINUOUS
0
VERTEX
8
8
10
137.5982
20
13612.1648
0
VERTEX
8
8
10
158.0919
20
13612.2052
0
VERTEX
8
8
10
178.0797
20
13612.2338
0
VERTEX
8
8
10
197.5406
20
13612.2755
0
VERTEX
8
8
10
216.4963
20
13612.3068
0
VERTEX
8
8
10
234.9510
20
13612.3516
0
VERTEX
8
8
10
252.9087
20
13612.3798
0
VERTEX
8
8
10
270.3761
20
13612.4201
0
VERTEX
8
8
10
287.3569
20
13612.4542
0
VERTEX
8
8
10
303.8432
20
13612.4832
0
VERTEX
8
8
10
319.8621
20
13612.5146
0
VERTEX
8
8
10
335.4146
20
13612.5506
0
VERTEX
8
8
10
350.5114
20
13612.5779
0
VERTEX
8
8
10
365.1478
20
13612.6093
0
VERTEX
8
8
10
379.3167
20
13612.6338
0
VERTEX
8
8
10
392.9378
20
13612.6649
0
VERTEX
8
8
10
405.8631
20
13612.6883
0
VERTEX
8
8
10
417.7871
20
13612.7099
0
VERTEX
8
8
10
428.0209
20
13612.7355
0
VERTEX
8
8
10
434.5953
20
13612.7446
0
SEQEND
0
TEXT
8
19
62
3
10
25.0001
20
12293.7672
40
12.0000
50
-0.0595
1
10
0
ENDBLK
0
BLOCK
2
Panel11
10
0
20
0
30
0
70
0
0
POLYLINE
8
1
62
1
66
1
6
CONTINUOUS
70
1
0
VERTEX
8
1
10
295.1590
20
13654.1746
0
VERTEX
8
1
10
288.6253
20
13654.9050
0
VERTEX
8
1
10
278.4535
20
13656.0307
0
VERTEX
8
1
10
266.6028
20
13657.3503
0
VERTEX
8
1
10
253.7568
20
13658.7806
0
VERTEX
8
1
10
240.2185
20
13660.2809
0
VERTEX
8
1
10
226.1367
20
13661.8487
0
VERTEX
8
1
10
211.5894
20
13663.4616
0
VERTEX
8
1
10
196.5850
20
13665.1295
0
VERTEX
8
1
10
181.1267
20
13666.8392
0
VERTEX
8
1
10
165.2053
20
13668.6050
0
VERTEX
8
1
10
148.8197
20
13670.4247
0
VERTEX
8
1
10
131.9421
20
13672.2940
0
VERTEX
8
1
10
114.5802
20
13674.2107
0
VERTEX
8
1
10
96.7322
20
13676.1934
0
VERTEX
8
1
10
78.3885
20
13678.2139
0
VERTEX
8
1
10
59.5481
20
13680.3023
0
VERTEX
8
1
10
40.2043
20
13682.4349
0
VERTEX
8
1
10
20.3382
20
13684.6369
0
VERTEX
8
1
10
-0.0324
20
13686.8803
0
VERTEX
8
1
10
0.6220
20
13689.8276
0
VERTEX
8
1
10
2.4275
20
13698.1722
0
VERTEX
8
1
10
5.2479
20
13711.1431
0
VERTEX
8
1
10
8.8938
20
13727.9347
0
VERTEX
8
1
10
13.2116
20
13747.8023
0
VERTEX
8
1
10
18.0261
20
13769.9648
0
VERTEX
8
1
10
23.1623
20
13793.6408
0
VERTEX
8
1
10
28.4549
20
13818.0518
0
VERTEX
8
1
10
33.7469
20
13842.5039
0
VERTEX
8
1
10
38.9555
20
13866.5304
0
VERTEX
8
1
10
43.9774
20
13889.7414
0
VERTEX
8
1
10
48.7364
20
13911.7235
0
VERTEX
8
1
10
53.1414
20
13932.0801
0
VERTEX
8
1
10
57.1162
20
13950.3974
0
VERTEX
8
1
10
60.5548
20
13966.2957
0
VERTEX
8
1
10
63.3836
20
13979.3516
0
VERTEX
8
1
10
65.5089
20
13989.1782
0
VERTEX
8
1
10
66.8423
20
13995.3691
0
VERTEX
8
1
10
67.2949
20
13997.6048
0
VERTEX
8
1
10
73.1913
20
13999.2496
0
VERTEX
8
1
10
78.9802
20
14000.8462
0
VERTEX
8
1
10
84.8032
20
14002.4794
0
VERTEX
8
1
10
90.6352
20
14004.1056
0
VERTEX
8
1
10
96.4549
20
14005.7646
0
VERTEX
8
1
10
102.2827
20
14007.4321
0
VERTEX
8
1
10
108.1039
20
14009.1027
0
VERTEX
8
1
10
113.9141
20
14010.8072
0
VERTEX
8
1
10
119.7203
20
14012.5182
0
VERTEX
8
1
10
125.5263
20
14014.2448
0
VERTEX
8
1
10
131.3240
20
14015.9853
0
VERTEX
8
1
10
137.1239
20
14017.7327
0
VERTEX
8
1
10
142.9091
20
14019.5021
0
VERTEX
8
1
10
148.6977
20
14021.2884
0
VERTEX
8
1
10
154.4835
20
14023.0787
0
VERTEX
8
1
10
160.2689
20
14024.8816
0
VERTEX
8
1
10
166.0503
20
14026.6944
0
VERTEX
8
1
10
171.8554
20
14028.5025
0
VERTEX
8
1
10
177.5993
20
14030.3105
0
VERTEX
8
1
10
179.0258
20
14025.7268
0
VERTEX
8
1
10
182.9330
20
14013.2005
0
VERTEX
8
1
10
188.7780
20
13994.5002
0
VERTEX
8
1
10
195.9928
20
13971.4081
0
VERTEX
8
1
10
204.0094
20
13945.7062
0
VERTEX
8
1
10
212.2984
20
13919.1880
0
VERTEX
8
1
10
220.2793
20
13893.6424
0
VERTEX
8
1
10
227.4193
20
13870.7679
0
VERTEX
8
1
10
233.6658
20
13850.7786
0
VERTEX
8
1
10
239.4020
20
13832.4112
0
VERTEX
8
1
10
245.0505
20
13814.3410
0
VERTEX
8
1
10
251.0184
20
13795.2599
0
VERTEX
8
1
10
257.7184
20
13773.8405
0
VERTEX
8
1
10
265.4727
20
13749.0621
0
VERTEX
8
1
10
273.7900
20
13722.4480
0
VERTEX
8
1
10
281.8156
20
13696.8217
0
VERTEX
8
1
10
288.6317
20
13675.0091
0
VERTEX
8
1
10
293.3781
20
13659.8527
0
VERTEX
8
1
10
295.1590
20
13654.1746
0
SEQEND
0
TEXT
8
19
62
3
10
24.9269
20
13685.1376
40
12.0000
50
-6.2848
1
11
0
ENDBLK
0
BLOCK
2
Panel12
10
0
20
0
30
0
70
0
0
POLYLINE
8
1
62
1
66
1
6
CONTINUOUS
70
1
0
VERTEX
8
1
10
5842.2500
20
1906.3900
0
VERTEX
8
1
10
5909.6416
20
1893.0797
0
VERTEX
8
1
10
5977.0124
20
1879.7695
0
VERTEX
8
1
10
6044.3625
20
1866.4595
0
VERTEX
8
1
10
6111.6825
20
1853.1495
0
VERTEX
8
1
10
6178.9828
20
1839.8394
0
VERTEX
8
1
10
6246.2539
20
1826.5292
0
VERTEX
8
1
10
6285.7754
20
1818.7089
0
VERTEX
8
1
10
6287.0271
20
1820.8550
0
VERTEX
8
1
10
6290.5596
20
1827.0804
0
VERTEX
8
1
10
6296.0396
20
1837.0659
0
VERTEX
8
1
10
6303.1334
20
1850.4920
0
VERTEX
8
1
10
6311.5075
20
1867.0395
0
VERTEX
8
1
10
6320.8283
20
1886.3892
0
VERTEX
8
1
10
6330.7623
20
1908.2217
0
VERTEX
8
1
10
6340.9760
20
1932.2176
0
VERTEX
8
1
10
6351.1357
20
1958.0578
0
VERTEX
8
1
10
6360.9080
20
1985.4228
0
VERTEX
8
1
10
6369.9593
20
2013.9935
0
VERTEX
8
1
10
6377.9560
20
2043.4504
0
VERTEX
8
1
10
6384.5647
20
2073.4744
0
VERTEX
8
1
10
6389.4517
20
2103.7460
0
VERTEX
8
1
10
6392.2835
20
2133.9460
0
VERTEX
8
1
10
6392.7266
20
2163.7551
0
VERTEX
8
1
10
6390.4474
20
2192.8540
0
VERTEX
8
1
10
6385.1123
20
2220.9233
0
VERTEX
8
1
10
6376.3879
20
2247.6439
0
VERTEX
8
1
10
6363.9405
20
2272.6963
0
VERTEX
8
1
10
6351.2870
20
2291.1907
0
VERTEX
8
1
10
6336.3963
20
2308.4656
0
VERTEX
8
1
10
6319.5807
20
2324.5501
0
VERTEX
8
1
10
6301.1521
20
2339.4738
0
VERTEX
8
1
10
6281.4227
20
2353.2658
0
VERTEX
8
1
10
6260.7045
20
2365.9555
0
VERTEX
8
1
10
6239.3096
20
2377.5722
0
VERTEX
8
1
10
6217.5501
20
2388.1452
0
VERTEX
8
1
10
6195.7379
20
2397.7039
0
VERTEX
8
1
10
6174.1853
20
2406.2776
0
VERTEX
8
1
10
6153.2042
20
2413.8955
0
VERTEX
8
1
10
6133.1067
20
2420.5871
0
VERTEX
8
1
10
6114.2049
20
2426.3817
0
VERTEX
8
1
10
6096.8109
20
2431.3085
0
VERTEX
8
1
10
6081.2366
20
2435.3969
0
VERTEX
8
1
10
6067.7943
20
2438.6762
0
VERTEX
8
1
10
6056.7959
20
2441.1757
0
VERTEX
8
1
10
6048.5536
20
2442.9247
0
VERTEX
8
1
10
6043.3793
20
2443.9527
0
VERTEX
8
1
10
6041.5852
20
2444.2888
0
VERTEX
8
1
10
6029.0982
20
2410.4869
0
VERTEX
8
1
10
5997.9013
20
2326.0875
0
VERTEX
8
1
10
5966.6747
20
2241.7286
0
VERTEX
8
1
10
5935.4385
20
2157.4099
0
VERTEX
8
1
10
5904.1824
20
2073.1412
0
VERTEX
8
1
10
5872.9065
20
1988.8925
0
VERTEX
8
1
10
5842.2500
20
1906.3900
0
SEQEND
0
TEXT
8
19
62
3
10
5869.2771
20
1939.0325
40
12.0000
50
69.6662
1
CR1/2
0
ENDBLK
0
BLOCK
2
Panel13
10
0
20
0
30
0
70
0
0
POLYLINE
8
1
62
1
66
1
6
CONTINUOUS
70
1
0
VERTEX
8
1
10
5842.2500
20
1906.3900
0
VERTEX
8
1
10
5909.6511
20
1893.0798
0
VERTEX
8
1
10
5977.0215
20
1879.7697
0
VERTEX
8
1
10
6044.3715
20
1866.4597
0
VERTEX
8
1
10
6111.6916
20
1853.1497
0
VERTEX
8
1
10
6178.9921
20
1839.8396
0
VERTEX
8
1
10
6224.1632
20
1830.8994
0
VERTEX
8
1
10
6225.2769
20
1832.9509
0
VERTEX
8
1
10
6228.4113
20
1838.8962
0
VERTEX
8
1
10
6233.2558
20
1848.4216
0
VERTEX
8
1
10
6239.5002
20
1861.2131
0
VERTEX
8
1
10
6246.8341
20
1876.9572
0
VERTEX
8
1
10
6254.9472
20
1895.3398
0
VERTEX
8
1
10
6263.5291
20
1916.0473
0
VERTEX
8
1
10
6272.2695
20
1938.7658
0
VERTEX
8
1
10
6280.8579
20
1963.1816
0
VERTEX
8
1
10
6288.9842
20
1988.9809
0
VERTEX
8
1
10
6296.3379
20
2015.8498
0
VERTEX
8
1
10
6302.6086
20
2043.4745
0
VERTEX
8
1
10
6307.4861
20
2071.5413
0
VERTEX
8
1
10
6310.6599
20
2099.7364
0
VERTEX
8
1
10
6311.8197
20
2127.7460
0
VERTEX
8
1
10
6310.6552
20
2155.2562
0
VERTEX
8
1
10
6306.8560
20
2181.9534
0
VERTEX
8
1
10
6300.1117
20
2207.5236
0
VERTEX
8
1
10
6290.1121
20
2231.6531
0
VERTEX
8
1
10
6276.5467
20
2254.0281
0
VERTEX
8
1
10
6265.2577
20
2268.0168
0
VERTEX
8
1
10
6252.4278
20
2281.0831
0
VERTEX
8
1
10
6238.2861
20
2293.2491
0
VERTEX
8
1
10
6223.0620
20
2304.5371
0
VERTEX
8
1
10
6206.9845
20
2314.9692
0
VERTEX
8
1
10
6190.2831
20
2324.5676
0
VERTEX
8
1
10
6173.1868
20
2333.3544
0
VERTEX
8
1
10
6155.9249
20
2341.3518
0
VERTEX
8
1
10
6138.7267
20
2348.5820
0
VERTEX
8
1
10
6121.8214
20
2355.0672
0
VERTEX
8
1
10
6105.4381
20
2360.8296
0
VERTEX
8
1
10
6089.8062
20
2365.8912
0
VERTEX
8
1
10
6075.1549
20
2370.2744
0
VERTEX
8
1
10
6061.7133
20
2374.0011
0
VERTEX
8
1
10
6049.7108
20
2377.0937
0
VERTEX
8
1
10
6039.3765
20
2379.5743
0
VERTEX
8
1
10
6030.9397
20
2381.4651
0
VERTEX
8
1
10
6024.6297
20
2382.7881
0
VERTEX
8
1
10
6020.6755
20
2383.5657
0
VERTEX
8
1
10
6019.3065
20
2383.8200
0
VERTEX
8
1
10
5997.9502
20
2326.0692
0
VERTEX
8
1
10
5966.7138
20
2241.7138
0
VERTEX
8
1
10
5935.4677
20
2157.3987
0
VERTEX
8
1
10
5904.2018
20
2073.1337
0
VERTEX
8
1
10
5872.9160
20
1988.8887
0
VERTEX
8
1
10
5842.2500
20
1906.3900
0
SEQEND
0
TEXT
8
19
62
3
10
5869.2849
20
1939.0261
40
12.0000
50
69.6525
1
CR1/3
0
ENDBLK
0
BLOCK
2
Panel14
10
0
20
0
30
0
70
0
0
POLYLINE
8
1
62
1
66
1
6
CONTINUOUS
70
1
0
VERTEX
8
1
10
5842.2500
20
1906.3900
0
VERTEX
8
1
10
5909.6506
20
1893.0799
0
VERTEX
8
1
10
5977.0207
20
1879.7699
0
VERTEX
8
1
10
6044.3707
20
1866.4599
0
VERTEX
8
1
10
6111.6910
20
1853.1498
0
VERTEX
8
1
10
6145.7115
20
1846.4197
0
VERTEX
8
1
10
6146.8227
20
1848.3469
0
VERTEX
8
1
10
6149.9495
20
1853.9261
0
VERTEX
8
1
10
6154.7818
20
1862.8537
0
VERTEX
8
1
10
6161.0094
20
1874.8259
0
VERTEX
8
1
10
6168.3222
20
1889.5393
0
VERTEX
8
1
10
6176.4099
20
1906.6901
0
VERTEX
8
1
10
6184.9626
20
1925.9747
0
VERTEX
8
1
10
6193.6699
20
1947.0895
0
VERTEX
8
1
10
6202.2218
20
1969.7309
0
VERTEX
8
1
10
6210.3080
20
1993.5951
0
VERTEX
8
1
10
6217.6186
20
2018.3786
0
VERTEX
8
1
10
6223.8432
20
2043.7778
0
VERTEX
8
1
10
6228.6718
20
2069.4889
0
VERTEX
8
1
10
6231.7942
20
2095.2085
0
VERTEX
8
1
10
6232.9002
20
2120.6327
0
VERTEX
8
1
10
6231.6797
20
2145.4581
0
VERTEX
8
1
10
6227.8225
20
2169.3809
0
VERTEX
8
1
10
6221.0185
20
2192.0975
0
VERTEX
8
1
10
6210.9575
20
2213.3043
0
VERTEX
8
1
10
6197.3295
20
2232.6977
0
VERTEX
8
1
10
6187.9760
20
2242.7468
0
VERTEX
8
1
10
6177.5532
20
2252.1361
0
VERTEX
8
1
10
6166.2286
20
2260.8813
0
VERTEX
8
1
10
6154.1696
20
2268.9980
0
VERTEX
8
1
10
6141.5437
20
2276.5018
0
VERTEX
8
1
10
6128.5185
20
2283.4083
0
VERTEX
8
1
10
6115.2614
20
2289.7332
0
VERTEX
8
1
10
6101.9400
20
2295.4920
0
VERTEX
8
1
10
6088.7217
20
2300.7004
0
VERTEX
8
1
10
6075.7741
20
2305.3739
0
VERTEX
8
1
10
6063.2646
20
2309.5282
0
VERTEX
8
1
10
6051.3607
20
2313.1790
0
VERTEX
8
1
10
6040.2300
20
2316.3418
0
VERTEX
8
1
10
6030.0400
20
2319.0322
0
VERTEX
8
1
10
6020.9581
20
2321.2658
0
VERTEX
8
1
10
6013.1518
20
2323.0583
0
VERTEX
8
1
10
6006.7887
20
2324.4253
0
VERTEX
8
1
10
6002.0362
20
2325.3824
0
VERTEX
8
1
10
5999.0619
20
2325.9453
0
VERTEX
8
1
10
5998.0333
20
2326.1294
0
VERTEX
8
1
10
5966.7558
20
2241.6980
0
VERTEX
8
1
10
5935.4991
20
2157.3868
0
VERTEX
8
1
10
5904.2226
20
2073.1258
0
VERTEX
8
1
10
5872.9263
20
1988.8848
0
VERTEX
8
1
10
5842.2500
20
1906.3900
0
SEQEND
0
TEXT
8
19
62
3
10
5869.2932
20
1939.0192
40
12.0000
50
69.6380
1
CR1/4
0
ENDBLK
0
BLOCK
2
Panel15
10
0
20
0
30
0
70
0
0
POLYLINE
8
1
62
1
66
1
6
CONTINUOUS
70
1
0
VERTEX
8
1
10
10397.1100
20
1787.1400
0
VERTEX
8
1
10
10397.6900
20
1832.0200
0
VERTEX
8
1
10
10398.8400
20
1923.5400
0
VERTEX
8
1
10
10399.9700
20
2015.0500
0
VERTEX
8
1
10
10401.0700
20
2106.5700
0
VERTEX
8
1
10
10401.8500
20
2173.5100
0
VERTEX
8
1
10
10400.3099
20
2173.5798
0
VERTEX
8
1
10
10395.8556
20
2173.7277
0
VERTEX
8
1
10
10388.7364
20
2173.8614
0
VERTEX
8
1
10
10379.2015
20
2173.8886
0
VERTEX
8
1
10
10367.5001
20
2173.7170
0
VERTEX
8
1
10
10353.8815
20
2173.2543
0
VERTEX
8
1
10
10338.5948
20
2172.4083
0
VERTEX
8
1
10
10321.8893
20
2171.0866
0
VERTEX
8
1
10
10304.0142
20
2169.1969
0
VERTEX
8
1
10
10285.2187
20
2166.6469
0
VERTEX
8
1
10
10265.7520
20
2163.3445
0
VERTEX
8
1
10
10245.8633
20
2159.1971
0
VERTEX
8
1
10
10225.8020
20
2154.1127
0
VERTEX
8
1
10
10205.8171
20
2147.9988
0
VERTEX
8
1
10
10186.1578
20
2140.7632
0
VERTEX
8
1
10
10167.0735
20
2132.3136
0
VERTEX
8
1
10
10148.8134
20
2122.5577
0
VERTEX
8
1
10
10131.6266
20
2111.4032
0
VERTEX
8
1
10
10115.7623
20
2098.7578
0
VERTEX
8
1
10
10101.4698
20
2084.5292
0
VERTEX
8
1
10
10089.5285
20
2069.5204
0
VERTEX
8
1
10
10079.1284
20
2053.2235
0
VERTEX
8
1
10
10070.1691
20
2035.8612
0
VERTEX
8
1
10
10062.5501
20
2017.6559
0
VERTEX
8
1
10
10056.1711
20
1998.8301
0
VERTEX
8
1
10
10050.9315
20
1979.6064
0
VERTEX
8
1
10
10046.7310
20
1960.2072
0
VERTEX
8
1
10
10043.4691
20
1940.8550
0
VERTEX
8
1
10
10041.0453
20
1921.7723
0
VERTEX
8
1
10
10039.3593
20
1903.1816
0
VERTEX
8
1
10
10038.3105
20
1885.3055
0
VERTEX
8
1
10
10037.7986
20
1868.3665
0
VERTEX
8
1
10
10037.7230
20
1852.5869
0
VERTEX
8
1
10
10037.9834
20
1838.1894
0
VERTEX
8
1
10
10038.4793
20
1825.3965
0
VERTEX
8
1
10
10039.1103
20
1814.4306
0
VERTEX
8
1
10
10039.7759
20
1805.5143
0
VERTEX
8
1
10
10040.3757
20
1798.8699
0
VERTEX
8
1
10
10040.8092
20
1794.7202
0
VERTEX
8
1
10
10040.9760
20
1793.2875
0
VERTEX
8
1
10
10042.6379
20
1793.2574
0
VERTEX
8
1
10
10092.5460
20
1792.3831
0
VERTEX
8
1
10
10142.6830
20
1791.5093
0
VERTEX
8
1
10
10193.0474
20
1790.6356
0
VERTEX
8
1
10
10243.6574
20
1789.7620
0
VERTEX
8
1
10
10294.5315
20
1788.8883
0
VERTEX
8
1
10
10345.6792
20
1788.0144
0
VERTEX
8
1
10
10397.1100
20
1787.1400
0
SEQEND
0
TEXT
8
19
62
3
10
10317.1564
20
1790.5204
40
12.0000
50
-0.9889
1
TR1/1
0
ENDBLK
0
BLOCK
2
Panel16
10
0
20
0
30
0
70
0
0
POLYLINE
8
1
62
1
66
1
6
CONTINUOUS
70
1
0
VERTEX
8
1
10
10397.1100
20
1787.1400
0
VERTEX
8
1
10
10397.6900
20
1832.0200
0
VERTEX
8
1
10
10398.8400
20
1923.5400
0
VERTEX
8
1
10
10399.9700
20
2015.0500
0
VERTEX
8
1
10
10401.0700
20
2106.5700
0
VERTEX
8
1
10
10401.2900
20
2125.5900
0
VERTEX
8
1
10
10400.0393
20
2125.6384
0
VERTEX
8
1
10
10396.4206
20
2125.7355
0
VERTEX
8
1
10
10390.6339
20
2125.8090
0
VERTEX
8
1
10
10382.8793
20
2125.7867
0
VERTEX
8
1
10
10373.3567
20
2125.5964
0
VERTEX
8
1
10
10362.2662
20
2125.1660
0
VERTEX
8
1
10
10349.8078
20
2124.4231
0
VERTEX
8
1
10
10336.1814
20
2123.2956
0
VERTEX
8
1
10
10321.5873
20
2121.7112
0
VERTEX
8
1
10
10306.2253
20
2119.5978
0
VERTEX
8
1
10
10290.2954
20
2116.8831
0
VERTEX
8
1
10
10273.9978
20
2113.4949
0
VERTEX
8
1
10
10257.5324
20
2109.3610
0
VERTEX
8
1
10
10241.0993
20
2104.4092
0
VERTEX
8
1
10
10224.8984
20
2098.5672
0
VERTEX
8
1
10
10209.1298
20
2091.7629
0
VERTEX
8
1
10
10193.9935
20
2083.9240
0
VERTEX
8
1
10
10179.6895
20
2074.9783
0
VERTEX
8
1
10
10166.4179
20
2064.8536
0
VERTEX
8
1
10
10154.3787
20
2053.4777
0
VERTEX
8
1
10
10143.3565
20
2040.3298
0
VERTEX
8
1
10
10133.7795
20
2025.9633
0
VERTEX
8
1
10
10125.5526
20
2010.5830
0
VERTEX
8
1
10
10118.5805
20
1994.3936
0
VERTEX
8
1
10
10112.7682
20
1977.5996
0
VERTEX
8
1
10
10108.0204
20
1960.4059
0
VERTEX
8
1
10
10104.2421
20
1943.0169
0
VERTEX
8
1
10
10101.3381
20
1925.6375
0
VERTEX
8
1
10
10099.2132
20
1908.4723
0
VERTEX
8
1
10
10097.7723
20
1891.7260
0
VERTEX
8
1
10
10096.9202
20
1875.6031
0
VERTEX
8
1
10
10096.5617
20
1860.3085
0
VERTEX
8
1
10
10096.6018
20
1846.0467
0
VERTEX
8
1
10
10096.9453
20
1833.0224
0
VERTEX
8
1
10
10097.4970
20
1821.4404
0
VERTEX
8
1
10
10098.1617
20
1811.5052
0
VERTEX
8
1
10
10098.8444
20
1803.4216
0
VERTEX
8
1
10
10099.4498
20
1797.3942
0
VERTEX
8
1
10
10099.8828
20
1793.6276
0
VERTEX
8
1
10
10100.0483
20
1792.3266
0
VERTEX
8
1
10
10142.7024
20
1791.5725
0
VERTEX
8
1
10
10193.0630
20
1790.6862
0
VERTEX
8
1
10
10243.6643
20
1789.7999
0
VERTEX
8
1
10
10294.5348
20
1788.9135
0
VERTEX
8
1
10
10345.6835
20
1788.0270
0
VERTEX
8
1
10
10397.1100
20
1787.1400
0
SEQEND
0
TEXT
8
19
62
3
10
10317.1571
20
1790.5363
40
12.0000
50
-1.0003
1
TR1/2
0
ENDBLK
0
BLOCK
2
Panel17
10
0
20
0
30
0
70
0
0
POLYLINE
8
1
62
1
66
1
6
CONTINUOUS
70
1
0
VERTEX
8
1
10
10370.6600
20
0.0400
0
VERTEX
8
1
10
10371.9700
20
85.1400
0
VERTEX
8
1
10
10373.2800
20
170.2400
0
VERTEX
8
1
10
10374.5900
20
255.3400
0
VERTEX
8
1
10
10375.9100
20
340.4400
0
VERTEX
8
1
10
10377.2200
20
425.5400
0
VERTEX
8
1
10
10377.5800
20
449.0000
0
VERTEX
8
1
10
10376.4569
20
449.0128
0
VERTEX
8
1
10
10373.1831
20
449.0364
0
VERTEX
8
1
10
10367.9018
20
449.0486
0
VERTEX
8
1
10
10360.7565
20
449.0272
0
VERTEX
8
1
10
10351.8903
20
448.9501
0
VERTEX
8
1
10
10341.4465
20
448.7950
0
VERTEX
8
1
10
10329.5685
20
448.5398
0
VERTEX
8
1
10
10316.3994
20
448.1623
0
VERTEX
8
1
10
10302.0827
20
447.6402
0
VERTEX
8
1
10
10286.7616
20
446.9514
0
VERTEX
8
1
10
10270.5793
20
446.0738
0
VERTEX
8
1
10
10253.6791
20
444.9850
0
VERTEX
8
1
10
10236.2044
20
443.6630
0
VERTEX
8
1
10
10218.2985
20
442.0855
0
VERTEX
8
1
10
10200.1045
20
440.2304
0
VERTEX
8
1
10
10181.7658
20
438.0755
0
VERTEX
8
1
10
10163.4257
20
435.5985
0
VERTEX
8
1
10
10145.2275
20
432.7773
0
VERTEX
8
1
10
10127.3144
20
429.5897
0
VERTEX
8
1
10
10109.8298
20
426.0136
0
VERTEX
8
1
10
10088.8933
20
421.0039
0
VERTEX
8
1
10
10068.8581
20
415.3413
0
VERTEX
8
1
10
10049.7445
20
409.0061
0
VERTEX
8
1
10
10031.5726
20
401.9783
0
VERTEX
8
1
10
10014.3628
20
394.2381
0
VERTEX
8
1
10
9998.1351
20
385.7658
0
VERTEX
8
1
10
9982.9099
20
376.5415
0
VERTEX
8
1
10
9968.7074
20
366.5453
0
VERTEX
8
1
10
9955.5478
20
355.7575
0
VERTEX
8
1
10
9943.4514
20
344.1581
0
VERTEX
8
1
10
9932.4383
20
331.7274
0
VERTEX
8
1
10
9922.5288
20
318.4456
0
VERTEX
8
1
10
9913.7431
20
304.2928
0
VERTEX
8
1
10
9906.1015
20
289.2492
0
VERTEX
8
1
10
9899.6242
20
273.2950
0
VERTEX
8
1
10
9894.3314
20
256.4103
0
VERTEX
8
1
10
9890.2434
20
238.5753
0
VERTEX
8
1
10
9887.3803
20
219.7702
0
VERTEX
8
1
10
9885.7625
20
199.9751
0
VERTEX
8
1
10
9885.4101
20
179.1703
0
VERTEX
8
1
10
9885.8515
20
165.2672
0
VERTEX
8
1
10
9886.7706
20
151.0494
0
VERTEX
8
1
10
9888.1133
20
136.6280
0
VERTEX
8
1
10
9889.8253
20
122.1142
0
VERTEX
8
1
10
9891.8528
20
107.6190
0
VERTEX
8
1
10
9894.1414
20
93.2537
0
VERTEX
8
1
10
9896.6373
20
79.1292
0
VERTEX
8
1
10
9899.2862
20
65.3569
0
VERTEX
8
1
10
9902.0340
20
52.0477
0
VERTEX
8
1
10
9904.8268
20
39.3128
0
VERTEX
8
1
10
9907.6103
20
27.2633
0
VERTEX
8
1
10
9910.3304
20
16.0105
0
VERTEX
8
1
10
9912.9332
20
5.6653
0
VERTEX
8
1
10
9915.3644
20
-3.6611
0
VERTEX
8
1
10
9917.5700
20
-11.8576
0
VERTEX
8
1
10
9919.4959
20
-18.8129
0
VERTEX
8
1
10
9921.0880
20
-24.4161
0
VERTEX
8
1
10
9922.2922
20
-28.5560
0
VERTEX
8
1
10
9923.0544
20
-31.1214
0
VERTEX
8
1
10
9923.3205
20
-32.0012
0
VERTEX
8
1
10
9935.8640
20
-31.1683
0
VERTEX
8
1
10
10021.8114
20
-25.3113
0
VERTEX
8
1
10
10108.2586
20
-19.2545
0
VERTEX
8
1
10
10195.1924
20
-13.0074
0
VERTEX
8
1
10
10282.6601
20
-6.5694
0
VERTEX
8
1
10
10370.6600
20
0.0400
0
SEQEND
0
TEXT
8
19
62
3
10
10358.5478
20
1.1776
40
12.0000
50
4.0969
1
T2
0
ENDBLK
0
BLOCK
2
Panel18
10
0
20
0
30
0
70
0
0
POLYLINE
8
1
62
1
66
1
6
CONTINUOUS
70
1
0
VERTEX
8
1
10
10370.6600
20
0.0400
0
VERTEX
8
1
10
10371.9700
20
85.1400
0
VERTEX
8
1
10
10373.2800
20
170.2400
0
VERTEX
8
1
10
10374.5900
20
255.3400
0
VERTEX
8
1
10
10375.9100
20
340.4400
0
VERTEX
8
1
10
10376.8900
20
404.3500
0
VERTEX
8
1
10
10375.8884
20
404.3604
0
VERTEX
8
1
10
10372.9684
20
404.3783
0
VERTEX
8
1
10
10368.2576
20
404.3840
0
VERTEX
8
1
10
10361.8833
20
404.3577
0
VERTEX
8
1
10
10353.9731
20
404.2797
0
VERTEX
8
1
10
10344.6544
20
404.1302
0
VERTEX
8
1
10
10334.0547
20
403.8895
0
VERTEX
8
1
10
10322.3014
20
403.5378
0
VERTEX
8
1
10
10309.5219
20
403.0554
0
VERTEX
8
1
10
10295.8438
20
402.4224
0
VERTEX
8
1
10
10281.3945
20
401.6192
0
VERTEX
8
1
10
10266.3014
20
400.6260
0
VERTEX
8
1
10
10250.6920
20
399.4230
0
VERTEX
8
1
10
10234.6937
20
397.9904
0
VERTEX
8
1
10
10218.4341
20
396.3086
0
VERTEX
8
1
10
10202.0405
20
394.3577
0
VERTEX
8
1
10
10185.6405
20
392.1181
0
VERTEX
8
1
10
10169.3614
20
389.5699
0
VERTEX
8
1
10
10153.3308
20
386.6933
0
VERTEX
8
1
10
10137.6760
20
383.4687
0
VERTEX
8
1
10
10118.9175
20
378.9547
0
VERTEX
8
1
10
10100.9553
20
373.8566
0
VERTEX
8
1
10
10083.8099
20
368.1576
0
VERTEX
8
1
10
10067.5019
20
361.8407
0
VERTEX
8
1
10
10052.0517
20
354.8887
0
VERTEX
8
1
10
10037.4798
20
347.2847
0
VERTEX
8
1
10
10023.8067
20
339.0118
0
VERTEX
8
1
10
10011.0528
20
330.0528
0
VERTEX
8
1
10
9999.2387
20
320.3909
0
VERTEX
8
1
10
9988.3849
20
310.0089
0
VERTEX
8
1
10
9978.5118
20
298.8900
0
VERTEX
8
1
10
9969.6398
20
287.0171
0
VERTEX
8
1
10
9961.7896
20
274.3731
0
VERTEX
8
1
10
9954.9816
20
260.9411
0
VERTEX
8
1
10
9949.2362
20
246.7041
0
VERTEX
8
1
10
9944.5740
20
231.6451
0
VERTEX
8
1
10
9941.0154
20
215.7471
0
VERTEX
8
1
10
9938.5810
20
198.9930
0
VERTEX
8
1
10
9937.2912
20
181.3660
0
VERTEX
8
1
10
9937.1665
20
162.8488
0
VERTEX
8
1
10
9937.7151
20
150.2672
0
VERTEX
8
1
10
9938.7187
20
137.3984
0
VERTEX
8
1
10
9940.1248
20
124.3433
0
VERTEX
8
1
10
9941.8813
20
111.2028
0
VERTEX
8
1
10
9943.9360
20
98.0776
0
VERTEX
8
1
10
9946.2366
20
85.0685
0
VERTEX
8
1
10
9948.7310
20
72.2764
0
VERTEX
8
1
10
9951.3668
20
59.8021
0
VERTEX
8
1
10
9954.0918
20
47.7463
0
VERTEX
8
1
10
9956.8539
20
36.2100
0
VERTEX
8
1
10
9959.6008
20
25.2939
0
VERTEX
8
1
10
9962.2803
20
15.0989
0
VERTEX
8
1
10
9964.8401
20
5.7257
0
VERTEX
8
1
10
9967.2281
20
-2.7248
0
VERTEX
8
1
10
9969.3920
20
-10.1519
0
VERTEX
8
1
10
9971.2795
20
-16.4546
0
VERTEX
8
1
10
9972.8385
20
-21.5322
0
VERTEX
8
1
10
9974.0167
20
-25.2839
0
VERTEX
8
1
10
9974.7620
20
-27.6089
0
VERTEX
8
1
10
9975.0220
20
-28.4063
0
VERTEX
8
1
10
10021.8090
20
-25.2297
0
VERTEX
8
1
10
10108.2599
20
-19.1928
0
VERTEX
8
1
10
10195.1953
20
-12.9660
0
VERTEX
8
1
10
10282.6627
20
-6.5486
0
VERTEX
8
1
10
10370.6600
20
0.0400
0
SEQEND
0
TEXT
8
19
62
3
10
10358.5475
20
1.1743
40
12.0000
50
4.1125
1
T3
0
ENDBLK
0
BLOCK
2
Panel19
10
0
20
0
30
0
70
0
0
POLYLINE
8
1
62
1
66
1
6
CONTINUOUS
70
1
0
VERTEX
8
1
10
10370.6600
20
0.0400
0
VERTEX
8
1
10
10371.9700
20
85.1400
0
VERTEX
8
1
10
10373.2800
20
170.2400
0
VERTEX
8
1
10
10374.5900
20
255.3400
0
VERTEX
8
1
10
10375.9100
20
340.4400
0
VERTEX
8
1
10
10376.2200
20
360.6700
0
VERTEX
8
1
10
10375.3420
20
360.6777
0
VERTEX
8
1
10
10372.7822
20
360.6894
0
VERTEX
8
1
10
10368.6517
20
360.6877
0
VERTEX
8
1
10
10363.0618
20
360.6553
0
VERTEX
8
1
10
10356.1237
20
360.5748
0
VERTEX
8
1
10
10347.9486
20
360.4289
0
VERTEX
8
1
10
10338.6477
20
360.2004
0
VERTEX
8
1
10
10328.3321
20
359.8718
0
VERTEX
8
1
10
10317.1132
20
359.4258
0
VERTEX
8
1
10
10305.1021
20
358.8452
0
VERTEX
8
1
10
10292.4099
20
358.1125
0
VERTEX
8
1
10
10279.1480
20
357.2105
0
VERTEX
8
1
10
10265.4275
20
356.1218
0
VERTEX
8
1
10
10251.3597
20
354.8291
0
VERTEX
8
1
10
10237.0556
20
353.3151
0
VERTEX
8
1
10
10222.6266
20
351.5624
0
VERTEX
8
1
10
10208.1839
20
349.5538
0
VERTEX
8
1
10
10193.8386
20
347.2718
0
VERTEX
8
1
10
10179.7019
20
344.6992
0
VERTEX
8
1
10
10165.8852
20
341.8186
0
VERTEX
8
1
10
10149.3097
20
337.7904
0
VERTEX
8
1
10
10133.4206
20
333.2470
0
VERTEX
8
1
10
10118.2395
20
328.1747
0
VERTEX
8
1
10
10103.7882
20
322.5597
0
VERTEX
8
1
10
10090.0884
20
316.3885
0
VERTEX
8
1
10
10077.1619
20
309.6473
0
VERTEX
8
1
10
10065.0302
20
302.3224
0
VERTEX
8
1
10
10053.7153
20
294.4002
0
VERTEX
8
1
10
10043.2388
20
285.8669
0
VERTEX
8
1
10
10033.6224
20
276.7088
0
VERTEX
8
1
10
10024.8878
20
266.9123
0
VERTEX
8
1
10
10017.0568
20
256.4637
0
VERTEX
8
1
10
10010.1512
20
245.3492
0
VERTEX
8
1
10
10004.1925
20
233.5553
0
VERTEX
8
1
10
9999.2027
20
221.0681
0
VERTEX
8
1
10
9995.2033
20
207.8740
0
VERTEX
8
1
10
9992.2161
20
193.9594
0
VERTEX
8
1
10
9990.2629
20
179.3105
0
VERTEX
8
1
10
9989.3653
20
163.9136
0
VERTEX
8
1
10
9989.5451
20
147.7551
0
VERTEX
8
1
10
9990.2762
20
136.4307
0
VERTEX
8
1
10
9991.4553
20
124.8445
0
VERTEX
8
1
10
9993.0298
20
113.0875
0
VERTEX
8
1
10
9994.9473
20
101.2508
0
VERTEX
8
1
10
9997.1552
20
89.4256
0
VERTEX
8
1
10
9999.6011
20
77.7030
0
VERTEX
8
1
10
10002.2324
20
66.1740
0
VERTEX
8
1
10
10004.9968
20
54.9299
0
VERTEX
8
1
10
10007.8416
20
44.0616
0
VERTEX
8
1
10
10010.7144
20
33.6604
0
VERTEX
8
1
10
10013.5628
20
23.8174
0
VERTEX
8
1
10
10016.3341
20
14.6236
0
VERTEX
8
1
10
10018.9761
20
6.1702
0
VERTEX
8
1
10
10021.4360
20
-1.4516
0
VERTEX
8
1
10
10023.6615
20
-8.1509
0
VERTEX
8
1
10
10025.6001
20
-13.8365
0
VERTEX
8
1
10
10027.1993
20
-18.4172
0
VERTEX
8
1
10
10028.4065
20
-21.8019
0
VERTEX
8
1
10
10029.1693
20
-23.8996
0
VERTEX
8
1
10
10029.4353
20
-24.6190
0
VERTEX
8
1
10
10108.2503
20
-19.1351
0
VERTEX
8
1
10
10195.1881
20
-12.9272
0
VERTEX
8
1
10
10282.6553
20
-6.5290
0
VERTEX
8
1
10
10370.6600
20
0.0400
0
SEQEND
0
TEXT
8
19
62
3
10
10358.5471
20
1.1699
40
12.0000
50
4.1334
1
T4
0
ENDBLK
0
BLOCK
2
Panel20
10
0
20
0
30
0
70
0
0
POLYLINE
8
1
62
1
66
1
6
CONTINUOUS
70
1
0
VERTEX
8
1
10
5185.3300
20
135.8400
0
VERTEX
8
1
10
5243.8402
20
127.9500
0
VERTEX
8
1
10
5360.7903
20
112.5900
0
VERTEX
8
1
10
5477.6104
20
97.7800
0
VERTEX
8
1
10
5594.2904
20
83.5199
0
VERTEX
8
1
10
5710.7907
20
69.7999
0
VERTEX
8
1
10
5715.9208
20
69.2199
0
VERTEX
8
1
10
5716.6503
20
70.3531
0
VERTEX
8
1
10
5718.7456
20
73.6550
0
VERTEX
8
1
10
5722.0669
20
78.9794
0
VERTEX
8
1
10
5726.4742
20
86.1800
0
VERTEX
8
1
10
5731.8276
20
95.1103
0
VERTEX
8
1
10
5737.9873
20
105.6242
0
VERTEX
8
1
10
5744.8134
20
117.5751
0
VERTEX
8
1
10
5752.1660
20
130.8169
0
VERTEX
8
1
10
5759.9053
20
145.2032
0
VERTEX
8
1
10
5767.8912
20
160.5877
0
VERTEX
8
1
10
5775.9840
20
176.8240
0
VERTEX
8
1
10
5784.0438
20
193.7658
0
VERTEX
8
1
10
5791.9307
20
211.2668
0
VERTEX
8
1
10
5799.5047
20
229.1806
0
VERTEX
8
1
10
5806.6261
20
247.3610
0
VERTEX
8
1
10
5813.1549
20
265.6616
0
VERTEX
8
1
10
5818.9513
20
283.9361
0
VERTEX
8
1
10
5823.8753
20
302.0381
0
VERTEX
8
1
10
5827.7872
20
319.8213
0
VERTEX
8
1
10
5830.5469
20
337.1394
0
VERTEX
8
1
10
5831.8113
20
350.0796
0
VERTEX
8
1
10
5832.3200
20
362.6630
0
VERTEX
8
1
10
5832.0835
20
374.8954
0
VERTEX
8
1
10
5831.1125
20
386.7827
0
VERTEX
8
1
10
5829.4174
20
398.3308
0
VERTEX
8
1
10
5827.0087
20
409.5454
0
VERTEX
8
1
10
5823.8972
20
420.4324
0
VERTEX
8
1
10
5820.0933
20
430.9977
0
VERTEX
8
1
10
5815.6075
20
441.2470
0
VERTEX
8
1
10
5810.4505
20
451.1863
0
VERTEX
8
1
10
5804.6327
20
460.8214
0
VERTEX
8
1
10
5798.1648
20
470.1581
0
VERTEX
8
1
10
5791.0573
20
479.2022
0
VERTEX
8
1
10
5783.3207
20
487.9597
0
VERTEX
8
1
10
5774.9657
20
496.4362
0
VERTEX
8
1
10
5766.0027
20
504.6378
0
VERTEX
8
1
10
5756.4423
20
512.5702
0
VERTEX
8
1
10
5746.2952
20
520.2393
0
VERTEX
8
1
10
5735.5717
20
527.6508
0
VERTEX
8
1
10
5724.2826
20
534.8108
0
VERTEX
8
1
10
5704.8911
20
545.8675
0
VERTEX
8
1
10
5684.2868
20
556.2890
0
VERTEX
8
1
10
5662.7084
20
566.0826
0
VERTEX
8
1
10
5640.3946
20
575.2556
0
VERTEX
8
1
10
5617.5840
20
583.8156
0
VERTEX
8
1
10
5594.5154
20
591.7698
0
VERTEX
8
1
10
5571.4273
20
599.1256
0
VERTEX
8
1
10
5548.5585
20
605.8904
0
VERTEX
8
1
10
5526.1477
20
612.0716
0
VERTEX
8
1
10
5504.4334
20
617.6766
0
VERTEX
8
1
10
5483.6544
20
622.7127
0
VERTEX
8
1
10
5464.0494
20
627.1874
0
VERTEX
8
1
10
5445.8570
20
631.1080
0
VERTEX
8
1
10
5429.3159
20
634.4819
0
VERTEX
8
1
10
5414.6648
20
637.3165
0
VERTEX
8
1
10
5402.1423
20
639.6192
0
VERTEX
8
1
10
5391.9871
20
641.3973
0
VERTEX
8
1
10
5384.4379
20
642.6582
0
VERTEX
8
1
10
5379.7333
20
643.4094
0
VERTEX
8
1
10
5378.1121
20
643.6581
0
VERTEX
8
1
10
5345.7603
20
558.2395
0
VERTEX
8
1
10
5313.7647
20
473.8391
0
VERTEX
8
1
10
5281.7290
20
389.3991
0
VERTEX
8
1
10
5249.6431
20
304.9296
0
VERTEX
8
1
10
5217.5068
20
220.4100
0
VERTEX
8
1
10
5185.3300
20
135.8400
0
SEQEND
0
TEXT
8
19
62
3
10
5225.2675
20
132.8412
40
12.0000
50
-7.1565
1
C2
0
ENDBLK
0
BLOCK
2
Panel21
10
0
20
0
30
0
70
0
0
POLYLINE
8
1
62
1
66
1
6
CONTINUOUS
70
1
0
VERTEX
8
1
10
5185.3300
20
135.8400
0
VERTEX
8
1
10
5243.8401
20
127.9500
0
VERTEX
8
1
10
5360.7902
20
112.5900
0
VERTEX
8
1
10
5477.6102
20
97.7800
0
VERTEX
8
1
10
5594.2903
20
83.5200
0
VERTEX
8
1
10
5649.7105
20
76.9899
0
VERTEX
8
1
10
5650.3471
20
77.9804
0
VERTEX
8
1
10
5652.1754
20
80.8666
0
VERTEX
8
1
10
5655.0733
20
85.5206
0
VERTEX
8
1
10
5658.9189
20
91.8146
0
VERTEX
8
1
10
5663.5899
20
99.6205
0
VERTEX
8
1
10
5668.9645
20
108.8104
0
VERTEX
8
1
10
5674.9205
20
119.2566
0
VERTEX
8
1
10
5681.3358
20
130.8310
0
VERTEX
8
1
10
5688.0884
20
143.4057
0
VERTEX
8
1
10
5695.0562
20
156.8529
0
VERTEX
8
1
10
5702.1172
20
171.0446
0
VERTEX
8
1
10
5709.1493
20
185.8529
0
VERTEX
8
1
10
5716.0304
20
201.1500
0
VERTEX
8
1
10
5722.6384
20
216.8078
0
VERTEX
8
1
10
5728.8514
20
232.6985
0
VERTEX
8
1
10
5734.5472
20
248.6942
0
VERTEX
8
1
10
5739.6038
20
264.6670
0
VERTEX
8
1
10
5743.8991
20
280.4890
0
VERTEX
8
1
10
5747.3111
20
296.0322
0
VERTEX
8
1
10
5749.7177
20
311.1687
0
VERTEX
8
1
10
5750.8203
20
322.4872
0
VERTEX
8
1
10
5751.2624
20
333.4934
0
VERTEX
8
1
10
5751.0533
20
344.1922
0
VERTEX
8
1
10
5750.2021
20
354.5889
0
VERTEX
8
1
10
5748.7180
20
364.6885
0
VERTEX
8
1
10
5746.6102
20
374.4962
0
VERTEX
8
1
10
5743.8881
20
384.0172
0
VERTEX
8
1
10
5740.5607
20
393.2565
0
VERTEX
8
1
10
5736.6374
20
402.2192
0
VERTEX
8
1
10
5732.1273
20
410.9106
0
VERTEX
8
1
10
5727.0396
20
419.3356
0
VERTEX
8
1
10
5721.3836
20
427.4995
0
VERTEX
8
1
10
5715.1685
20
435.4074
0
VERTEX
8
1
10
5708.4035
20
443.0644
0
VERTEX
8
1
10
5701.0978
20
450.4756
0
VERTEX
8
1
10
5693.2607
20
457.6461
0
VERTEX
8
1
10
5684.9013
20
464.5811
0
VERTEX
8
1
10
5676.0289
20
471.2857
0
VERTEX
8
1
10
5666.6527
20
477.7650
0
VERTEX
8
1
10
5656.7819
20
484.0242
0
VERTEX
8
1
10
5639.8106
20
493.6983
0
VERTEX
8
1
10
5621.7770
20
502.8157
0
VERTEX
8
1
10
5602.8900
20
511.3830
0
VERTEX
8
1
10
5583.3587
20
519.4067
0
VERTEX
8
1
10
5563.3919
20
526.8934
0
VERTEX
8
1
10
5543.1988
20
533.8496
0
VERTEX
8
1
10
5522.9882
20
540.2819
0
VERTEX
8
1
10
5502.9692
20
546.1968
0
VERTEX
8
1
10
5483.3508
20
551.6009
0
VERTEX
8
1
10
5464.3419
20
556.5007
0
VERTEX
8
1
10
5446.1515
20
560.9028
0
VERTEX
8
1
10
5428.9886
20
564.8137
0
VERTEX
8
1
10
5413.0622
20
568.2399
0
VERTEX
8
1
10
5398.5812
20
571.1881
0
VERTEX
8
1
10
5385.7548
20
573.6648
0
VERTEX
8
1
10
5374.7918
20
575.6764
0
VERTEX
8
1
10
5365.9012
20
577.2296
0
VERTEX
8
1
10
5359.2920
20
578.3310
0
VERTEX
8
1
10
5355.1733
20
578.9870
0
VERTEX
8
1
10
5353.7539
20
579.2042
0
VERTEX
8
1
10
5345.8059
20
558.2220
0
VERTEX
8
1
10
5313.8012
20
473.8249
0
VERTEX
8
1
10
5281.7563
20
389.3884
0
VERTEX
8
1
10
5249.6613
20
304.9223
0
VERTEX
8
1
10
5217.5159
20
220.4063
0
VERTEX
8
1
10
5185.3300
20
135.8400
0
SEQEND
0
TEXT
8
19
62
3
10
5225.2641
20
132.7952
40
12.0000
50
-7.2225
1
C3
0
ENDBLK
0
BLOCK
2
Panel22
10
0
20
0
30
0
70
0
0
POLYLINE
8
1
62
1
66
1
6
CONTINUOUS
70
1
0
VERTEX
8
1
10
5185.3300
20
135.8400
0
VERTEX
8
1
10
5243.8401
20
127.9500
0
VERTEX
8
1
10
5360.7901
20
112.5900
0
VERTEX
8
1
10
5477.6101
20
97.7800
0
VERTEX
8
1
10
5581.4003
20
85.0900
0
VERTEX
8
1
10
5581.9473
20
85.9429
0
VERTEX
8
1
10
5583.5184
20
88.4283
0
VERTEX
8
1
10
5586.0087
20
92.4359
0
VERTEX
8
1
10
5589.3132
20
97.8552
0
VERTEX
8
1
10
5593.3272
20
104.5761
0
VERTEX
8
1
10
5597.9456
20
112.4882
0
VERTEX
8
1
10
5603.0636
20
121.4813
0
VERTEX
8
1
10
5608.5762
20
131.4450
0
VERTEX
8
1
10
5614.3786
20
142.2690
0
VERTEX
8
1
10
5620.3659
20
153.8431
0
VERTEX
8
1
10
5626.4332
20
166.0569
0
VERTEX
8
1
10
5632.4755
20
178.8002
0
VERTEX
8
1
10
5638.3880
20
191.9627
0
VERTEX
8
1
10
5644.0658
20
205.4340
0
VERTEX
8
1
10
5649.4039
20
219.1038
0
VERTEX
8
1
10
5654.2975
20
232.8619
0
VERTEX
8
1
10
5658.6416
20
246.5980
0
VERTEX
8
1
10
5662.3314
20
260.2017
0
VERTEX
8
1
10
5665.2620
20
273.5628
0
VERTEX
8
1
10
5667.3284
20
286.5710
0
VERTEX
8
1
10
5668.2745
20
296.2950
0
VERTEX
8
1
10
5668.6529
20
305.7488
0
VERTEX
8
1
10
5668.4716
20
314.9371
0
VERTEX
8
1
10
5667.7383
20
323.8649
0
VERTEX
8
1
10
5666.4610
20
332.5371
0
VERTEX
8
1
10
5664.6475
20
340.9584
0
VERTEX
8
1
10
5662.3058
20
349.1338
0
VERTEX
8
1
10
5659.4436
20
357.0680
0
VERTEX
8
1
10
5656.0690
20
364.7661
0
VERTEX
8
1
10
5652.1897
20
372.2328
0
VERTEX
8
1
10
5647.8136
20
379.4730
0
VERTEX
8
1
10
5642.9487
20
386.4916
0
VERTEX
8
1
10
5637.6028
20
393.2934
0
VERTEX
8
1
10
5631.7838
20
399.8833
0
VERTEX
8
1
10
5625.4995
20
406.2661
0
VERTEX
8
1
10
5618.7579
20
412.4468
0
VERTEX
8
1
10
5611.5669
20
418.4301
0
VERTEX
8
1
10
5603.9342
20
424.2210
0
VERTEX
8
1
10
5595.8679
20
429.8243
0
VERTEX
8
1
10
5587.3757
20
435.2449
0
VERTEX
8
1
10
5572.9649
20
443.5369
0
VERTEX
8
1
10
5557.6631
20
451.3775
0
VERTEX
8
1
10
5541.6466
20
458.7697
0
VERTEX
8
1
10
5525.0916
20
465.7161
0
VERTEX
8
1
10
5508.1743
20
472.2196
0
VERTEX
8
1
10
5491.0711
20
478.2830
0
VERTEX
8
1
10
5473.9582
20
483.9092
0
VERTEX
8
1
10
5457.0119
20
489.1010
0
VERTEX
8
1
10
5440.4083
20
493.8612
0
VERTEX
8
1
10
5424.3238
20
498.1927
0
VERTEX
8
1
10
5408.9346
20
502.0982
0
VERTEX
8
1
10
5394.4170
20
505.5806
0
VERTEX
8
1
10
5380.9473
20
508.6428
0
VERTEX
8
1
10
5368.7017
20
511.2874
0
VERTEX
8
1
10
5357.8564
20
513.5175
0
VERTEX
8
1
10
5348.5878
20
515.3357
0
VERTEX
8
1
10
5341.0720
20
516.7450
0
VERTEX
8
1
10
5335.4853
20
517.7481
0
VERTEX
8
1
10
5332.0041
20
518.3480
0
VERTEX
8
1
10
5330.8045
20
518.5473
0
VERTEX
8
1
10
5313.8369
20
473.8112
0
VERTEX
8
1
10
5281.7830
20
389.3779
0
VERTEX
8
1
10
5249.6791
20
304.9152
0
VERTEX
8
1
10
5217.5248
20
220.4027
0
VERTEX
8
1
10
5185.3300
20
135.8400
0
SEQEND
0
TEXT
8
19
62
3
10
5225.2598
20
132.7400
40
12.0000
50
-7.3017
1
C4
0
ENDBLK
0
BLOCK
2
Panel23
10
0
20
0
30
0
70
0
0
POLYLINE
8
1
62
1
66
1
6
CONTINUOUS
70
1
0
VERTEX
8
1
10
10261.7700
20
11916.9800
0
VERTEX
8
1
10
10218.4296
20
11832.2891
0
VERTEX
8
1
10
10175.0794
20
11747.6588
0
VERTEX
8
1
10
10131.7294
20
11663.0688
0
VERTEX
8
1
10
10088.3694
20
11578.5188
0
VERTEX
8
1
10
10045.0093
20
11494.0287
0
VERTEX
8
1
10
10001.6292
20
11409.5685
0
VERTEX
8
1
10
9958.2290
20
11325.1481
0
VERTEX
8
1
10
9937.6489
20
11285.1378
0
VERTEX
8
1
10
9938.6372
20
11284.1498
0
VERTEX
8
1
10
9941.5343
20
11281.3272
0
VERTEX
8
1
10
9946.2388
20
11276.8823
0
VERTEX
8
1
10
9952.6490
20
11271.0274
0
VERTEX
8
1
10
9960.6635
20
11263.9746
0
VERTEX
8
1
10
9970.1807
20
11255.9364
0
VERTEX
8
1
10
9981.0991
20
11247.1248
0
VERTEX
8
1
10
9993.3170
20
11237.7522
0
VERTEX
8
1
10
10006.7331
20
11228.0309
0
VERTEX
8
1
10
10021.2457
20
11218.1730
0
VERTEX
8
1
10
10036.7533
20
11208.3908
0
VERTEX
8
1
10
10053.1543
20
11198.8967
0
VERTEX
8
1
10
10070.3473
20
11189.9028
0
VERTEX
8
1
10
10088.2307
20
11181.6214
0
VERTEX
8
1
10
10106.7029
20
11174.2648
0
VERTEX
8
1
10
10125.6624
20
11168.0451
0
VERTEX
8
1
10
10145.0076
20
11163.1748
0
VERTEX
8
1
10
10164.6371
20
11159.8660
0
VERTEX
8
1
10
10184.4492
20
11158.3309
0
VERTEX
8
1
10
10204.3425
20
11158.7819
0
VERTEX
8
1
10
10219.4086
20
11160.5396
0
VERTEX
8
1
10
10234.3886
20
11163.4284
0
VERTEX
8
1
10
10249.2085
20
11167.3161
0
VERTEX
8
1
10
10263.7939
20
11172.0708
0
VERTEX
8
1
10
10278.0706
20
11177.5603
0
VERTEX
8
1
10
10291.9643
20
11183.6527
0
VERTEX
8
1
10
10305.4008
20
11190.2159
0
VERTEX
8
1
10
10318.3058
20
11197.1177
0
VERTEX
8
1
10
10330.6051
20
11204.2263
0
VERTEX
8
1
10
10342.2244
20
11211.4095
0
VERTEX
8
1
10
10353.0895
20
11218.5354
0
VERTEX
8
1
10
10363.1262
20
11225.4717
0
VERTEX
8
1
10
10372.2601
20
11232.0865
0
VERTEX
8
1
10
10380.4171
20
11238.2478
0
VERTEX
8
1
10
10387.5229
20
11243.8235
0
VERTEX
8
1
10
10393.5032
20
11248.6816
0
VERTEX
8
1
10
10398.2838
20
11252.6899
0
VERTEX
8
1
10
10401.7905
20
11255.7165
0
VERTEX
8
1
10
10403.9489
20
11257.6293
0
VERTEX
8
1
10
10404.6849
20
11258.2962
0
VERTEX
8
1
10
10400.9288
20
11346.3581
0
VERTEX
8
1
10
10396.8698
20
11441.7845
0
VERTEX
8
1
10
10392.8208
20
11537.2112
0
VERTEX
8
1
10
10388.7921
20
11632.6285
0
VERTEX
8
1
10
10384.7731
20
11728.0560
0
VERTEX
8
1
10
10380.7744
20
11823.4740
0
VERTEX
8
1
10
10376.7954
20
11918.9025
0
VERTEX
8
1
10
10261.7700
20
11916.9800
0
SEQEND
0
TEXT
8
19
62
3
10
10363.6515
20
11898.3298
40
12.0000
50
-87.5825
1
H2
0
ENDBLK
0
BLOCK
2
Panel24
10
0
20
0
30
0
70
0
0
POLYLINE
8
1
62
1
66
1
6
CONTINUOUS
70
1
0
VERTEX
8
1
10
10261.7700
20
11916.9800
0
VERTEX
8
1
10
10218.4297
20
11832.2893
0
VERTEX
8
1
10
10175.0796
20
11747.6591
0
VERTEX
8
1
10
10131.7295
20
11663.0691
0
VERTEX
8
1
10
10088.3695
20
11578.5191
0
VERTEX
8
1
10
10045.0095
20
11494.0290
0
VERTEX
8
1
10
10001.6293
20
11409.5686
0
VERTEX
8
1
10
9985.2392
20
11377.6984
0
VERTEX
8
1
10
9985.9450
20
11377.0245
0
VERTEX
8
1
10
9988.0174
20
11375.0918
0
VERTEX
8
1
10
9991.3888
20
11372.0338
0
VERTEX
8
1
10
9995.9916
20
11367.9840
0
VERTEX
8
1
10
10001.7583
20
11363.0759
0
VERTEX
8
1
10
10008.6214
20
11357.4431
0
VERTEX
8
1
10
10016.5132
20
11351.2190
0
VERTEX
8
1
10
10025.3663
20
11344.5371
0
VERTEX
8
1
10
10035.1130
20
11337.5311
0
VERTEX
8
1
10
10045.6858
20
11330.3343
0
VERTEX
8
1
10
10057.0172
20
11323.0803
0
VERTEX
8
1
10
10069.0395
20
11315.9026
0
VERTEX
8
1
10
10081.6853
20
11308.9347
0
VERTEX
8
1
10
10094.8869
20
11302.3101
0
VERTEX
8
1
10
10108.5768
20
11296.1624
0
VERTEX
8
1
10
10122.6875
20
11290.6250
0
VERTEX
8
1
10
10137.1514
20
11285.8315
0
VERTEX
8
1
10
10151.9009
20
11281.9153
0
VERTEX
8
1
10
10166.8684
20
11279.0101
0
VERTEX
8
1
10
10181.9865
20
11277.2492
0
VERTEX
8
1
10
10197.9420
20
11276.7297
0
VERTEX
8
1
10
10213.9001
20
11277.4835
0
VERTEX
8
1
10
10229.7721
20
11279.3757
0
VERTEX
8
1
10
10245.4691
20
11282.2716
0
VERTEX
8
1
10
10260.9026
20
11286.0363
0
VERTEX
8
1
10
10275.9836
20
11290.5351
0
VERTEX
8
1
10
10290.6234
20
11295.6331
0
VERTEX
8
1
10
10304.7333
20
11301.1955
0
VERTEX
8
1
10
10318.2245
20
11307.0876
0
VERTEX
8
1
10
10331.0083
20
11313.1745
0
VERTEX
8
1
10
10342.9958
20
11319.3215
0
VERTEX
8
1
10
10354.0983
20
11325.3938
0
VERTEX
8
1
10
10364.2271
20
11331.2565
0
VERTEX
8
1
10
10373.2933
20
11336.7749
0
VERTEX
8
1
10
10381.2083
20
11341.8141
0
VERTEX
8
1
10
10387.8832
20
11346.2393
0
VERTEX
8
1
10
10393.2293
20
11349.9159
0
VERTEX
8
1
10
10397.1579
20
11352.7088
0
VERTEX
8
1
10
10399.5801
20
11354.4835
0
VERTEX
8
1
10
10400.4073
20
11355.1050
0
VERTEX
8
1
10
10396.7409
20
11441.7791
0
VERTEX
8
1
10
10392.7177
20
11537.2069
0
VERTEX
8
1
10
10388.7148
20
11632.6252
0
VERTEX
8
1
10
10384.7216
20
11728.0538
0
VERTEX
8
1
10
10380.7486
20
11823.4729
0
VERTEX
8
1
10
10376.7954
20
11918.9025
0
VERTEX
8
1
10
10261.7700
20
11916.9800
0
SEQEND
0
TEXT
8
19
62
3
10
10363.6446
20
11898.3343
40
12.0000
50
-87.6019
1
H3
0
ENDBLK
0
BLOCK
2
Panel25
10
0
20
0
30
0
70
0
0
POLYLINE
8
1
62
1
66
1
6
CONTINUOUS
70
1
0
VERTEX
8
1
10
10261.7700
20
11916.9800
0
VERTEX
8
1
10
10218.4298
20
11832.2896
0
VERTEX
8
1
10
10175.0797
20
11747.6595
0
VERTEX
8
1
10
10131.7297
20
11663.0695
0
VERTEX
8
1
10
10088.3697
20
11578.5194
0
VERTEX
8
1
10
10045.0095
20
11494.0291
0
VERTEX
8
1
10
10033.8795
20
11472.3490
0
VERTEX
8
1
10
10034.4705
20
11471.7846
0
VERTEX
8
1
10
10036.2061
20
11470.1649
0
VERTEX
8
1
10
10039.0302
20
11467.6003
0
VERTEX
8
1
10
10042.8866
20
11464.2009
0
VERTEX
8
1
10
10047.7190
20
11460.0770
0
VERTEX
8
1
10
10053.4713
20
11455.3389
0
VERTEX
8
1
10
10060.0874
20
11450.0968
0
VERTEX
8
1
10
10067.5111
20
11444.4610
0
VERTEX
8
1
10
10075.6862
20
11438.5418
0
VERTEX
8
1
10
10084.5565
20
11432.4495
0
VERTEX
8
1
10
10094.0658
20
11426.2942
0
VERTEX
8
1
10
10104.1581
20
11420.1863
0
VERTEX
8
1
10
10114.7771
20
11414.2360
0
VERTEX
8
1
10
10125.8666
20
11408.5536
0
VERTEX
8
1
10
10137.3704
20
11403.2493
0
VERTEX
8
1
10
10149.2325
20
11398.4334
0
VERTEX
8
1
10
10161.3966
20
11394.2162
0
VERTEX
8
1
10
10173.8065
20
11390.7079
0
VERTEX
8
1
10
10186.4062
20
11388.0189
0
VERTEX
8
1
10
10199.1393
20
11386.2592
0
VERTEX
8
1
10
10213.4588
20
11385.4820
0
VERTEX
8
1
10
10227.7938
20
11385.8806
0
VERTEX
8
1
10
10242.0632
20
11387.3323
0
VERTEX
8
1
10
10256.1860
20
11389.7141
0
VERTEX
8
1
10
10270.0811
20
11392.9034
0
VERTEX
8
1
10
10283.6673
20
11396.7771
0
VERTEX
8
1
10
10296.8637
20
11401.2125
0
VERTEX
8
1
10
10309.5890
20
11406.0868
0
VERTEX
8
1
10
10321.7623
20
11411.2770
0
VERTEX
8
1
10
10333.3024
20
11416.6604
0
VERTEX
8
1
10
10344.1283
20
11422.1141
0
VERTEX
8
1
10
10354.1589
20
11427.5153
0
VERTEX
8
1
10
10363.3131
20
11432.7411
0
VERTEX
8
1
10
10371.5098
20
11437.6686
0
VERTEX
8
1
10
10378.6679
20
11442.1751
0
VERTEX
8
1
10
10384.7064
20
11446.1377
0
VERTEX
8
1
10
10389.5441
20
11449.4336
0
VERTEX
8
1
10
10393.1000
20
11451.9399
0
VERTEX
8
1
10
10395.2930
20
11453.5337
0
VERTEX
8
1
10
10396.0421
20
11454.0923
0
VERTEX
8
1
10
10392.5703
20
11537.2008
0
VERTEX
8
1
10
10388.6042
20
11632.6207
0
VERTEX
8
1
10
10384.6479
20
11728.0508
0
VERTEX
8
1
10
10380.7118
20
11823.4714
0
VERTEX
8
1
10
10376.7954
20
11918.9025
0
VERTEX
8
1
10
10261.7700
20
11916.9800
0
SEQEND
0
TEXT
8
19
62
3
10
10363.6349
20
11898.3405
40
12.0000
50
-87.6289
1
H4
0
ENDBLK
0
BLOCK
2
Panel26
10
0
20
0
30
0
70
0
0
POLYLINE
8
1
62
1
66
1
6
CONTINUOUS
70
1
0
VERTEX
8
1
10
10414.9600
20
3574.5700
0
VERTEX
8
1
10
10415.3000
20
3621.9500
0
VERTEX
8
1
10
10415.9500
20
3717.0500
0
VERTEX
8
1
10
10416.5800
20
3812.1500
0
VERTEX
8
1
10
10417.1800
20
3907.2400
0
VERTEX
8
1
10
10417.3800
20
3940.4200
0
VERTEX
8
1
10
10415.9211
20
3940.4836
0
VERTEX
8
1
10
10411.7020
20
3940.6162
0
VERTEX
8
1
10
10404.9594
20
3940.7311
0
VERTEX
8
1
10
10395.9296
20
3940.7412
0
VERTEX
8
1
10
10384.8493
20
3940.5595
0
VERTEX
8
1
10
10371.9549
20
3940.0991
0
VERTEX
8
1
10
10357.4831
20
3939.2730
0
VERTEX
8
1
10
10341.6702
20
3937.9943
0
VERTEX
8
1
10
10324.7529
20
3936.1760
0
VERTEX
8
1
10
10306.9676
20
3933.7311
0
VERTEX
8
1
10
10288.5509
20
3930.5726
0
VERTEX
8
1
10
10269.7393
20
3926.6137
0
VERTEX
8
1
10
10250.7694
20
3921.7673
0
VERTEX
8
1
10
10231.8776
20
3915.9465
0
VERTEX
8
1
10
10213.3005
20
3909.0643
0
VERTEX
8
1
10
10195.2745
20
3901.0338
0
VERTEX
8
1
10
10178.0364
20
3891.7679
0
VERTEX
8
1
10
10161.8225
20
3881.1798
0
VERTEX
8
1
10
10146.8693
20
3869.1824
0
VERTEX
8
1
10
10133.4135
20
3855.6888
0
VERTEX
8
1
10
10122.1896
20
3841.4619
0
VERTEX
8
1
10
10112.4321
20
3826.0185
0
VERTEX
8
1
10
10104.0447
20
3809.5689
0
VERTEX
8
1
10
10096.9312
20
3792.3237
0
VERTEX
8
1
10
10090.9951
20
3774.4933
0
VERTEX
8
1
10
10086.1401
20
3756.2881
0
VERTEX
8
1
10
10082.2699
20
3737.9185
0
VERTEX
8
1
10
10079.2882
20
3719.5951
0
VERTEX
8
1
10
10077.0986
20
3701.5282
0
VERTEX
8
1
10
10075.6048
20
3683.9283
0
VERTEX
8
1
10
10074.7104
20
3667.0058
0
VERTEX
8
1
10
10074.3192
20
3650.9711
0
VERTEX
8
1
10
10074.3348
20
3636.0348
0
VERTEX
8
1
10
10074.6609
20
3622.4072
0
VERTEX
8
1
10
10075.2010
20
3610.2988
0
VERTEX
8
1
10
10075.8590
20
3599.9201
0
VERTEX
8
1
10
10076.5385
20
3591.4814
0
VERTEX
8
1
10
10077.1431
20
3585.1932
0
VERTEX
8
1
10
10077.5765
20
3581.2660
0
VERTEX
8
1
10
10077.7424
20
3579.9101
0
VERTEX
8
1
10
10106.9747
20
3579.4334
0
VERTEX
8
1
10
10156.8780
20
3578.6228
0
VERTEX
8
1
10
10207.2854
20
3577.8127
0
VERTEX
8
1
10
10258.2461
20
3577.0027
0
VERTEX
8
1
10
10309.8018
20
3576.1925
0
VERTEX
8
1
10
10362.0170
20
3575.3818
0
VERTEX
8
1
10
10414.9600
20
3574.5700
0
SEQEND
0
TEXT
8
19
62
3
10
10335.0017
20
3577.8365
40
12.0000
50
-0.9073
1
TR2/1
0
ENDBLK
0
BLOCK
2
Panel27
10
0
20
0
30
0
70
0
0
POLYLINE
8
1
62
1
66
1
6
CONTINUOUS
70
1
0
VERTEX
8
1
10
10414.9600
20
3574.5700
0
VERTEX
8
1
10
10415.3000
20
3621.9500
0
VERTEX
8
1
10
10415.9500
20
3717.0500
0
VERTEX
8
1
10
10416.5800
20
3812.1500
0
VERTEX
8
1
10
10417.1000
20
3895.0500
0
VERTEX
8
1
10
10415.9159
20
3895.0937
0
VERTEX
8
1
10
10412.4900
20
3895.1794
0
VERTEX
8
1
10
10407.0121
20
3895.2392
0
VERTEX
8
1
10
10399.6718
20
3895.2050
0
VERTEX
8
1
10
10390.6589
20
3895.0089
0
VERTEX
8
1
10
10380.1630
20
3894.5829
0
VERTEX
8
1
10
10368.3738
20
3893.8589
0
VERTEX
8
1
10
10355.4812
20
3892.7691
0
VERTEX
8
1
10
10341.6746
20
3891.2454
0
VERTEX
8
1
10
10327.1440
20
3889.2198
0
VERTEX
8
1
10
10312.0789
20
3886.6243
0
VERTEX
8
1
10
10296.6690
20
3883.3910
0
VERTEX
8
1
10
10281.1042
20
3879.4518
0
VERTEX
8
1
10
10265.5740
20
3874.7388
0
VERTEX
8
1
10
10250.2681
20
3869.1840
0
VERTEX
8
1
10
10235.3764
20
3862.7194
0
VERTEX
8
1
10
10221.0884
20
3855.2770
0
VERTEX
8
1
10
10207.5939
20
3846.7887
0
VERTEX
8
1
10
10195.0825
20
3837.1867
0
VERTEX
8
1
10
10183.7441
20
3826.4030
0
VERTEX
8
1
10
10173.3727
20
3813.9380
0
VERTEX
8
1
10
10164.3767
20
3800.3213
0
VERTEX
8
1
10
10156.6650
20
3785.7468
0
VERTEX
8
1
10
10150.1463
20
3770.4079
0
VERTEX
8
1
10
10144.7294
20
3754.4985
0
VERTEX
8
1
10
10140.3230
20
3738.2120
0
VERTEX
8
1
10
10136.8361
20
3721.7421
0
VERTEX
8
1
10
10134.1772
20
3705.2825
0
VERTEX
8
1
10
10132.2553
20
3689.0269
0
VERTEX
8
1
10
10130.9791
20
3673.1689
0
VERTEX
8
1
10
10130.2574
20
3657.9021
0
VERTEX
8
1
10
10129.9989
20
3643.4202
0
VERTEX
8
1
10
10130.1125
20
3629.9168
0
VERTEX
8
1
10
10130.5069
20
3617.5856
0
VERTEX
8
1
10
10131.0909
20
3606.6202
0
VERTEX
8
1
10
10131.7732
20
3597.2142
0
VERTEX
8
1
10
10132.4627
20
3589.5614
0
VERTEX
8
1
10
10133.0682
20
3583.8554
0
VERTEX
8
1
10
10133.4983
20
3580.2897
0
VERTEX
8
1
10
10133.6620
20
3579.0582
0
VERTEX
8
1
10
10156.8800
20
3578.6780
0
VERTEX
8
1
10
10207.2851
20
3577.8567
0
VERTEX
8
1
10
10258.2420
20
3577.0356
0
VERTEX
8
1
10
10309.8020
20
3576.2144
0
VERTEX
8
1
10
10362.0189
20
3575.3927
0
VERTEX
8
1
10
10414.9600
20
3574.5700
0
SEQEND
0
TEXT
8
19
62
3
10
10335.0021
20
3577.8460
40
12.0000
50
-0.9141
1
TR2/2
0
ENDBLK
0
BLOCK
2
Panel28
10
0
20
0
30
0
70
0
0
POLYLINE
8
1
62
1
66
1
6
CONTINUOUS
70
1
0
VERTEX
8
1
10
6517.8100
20
3676.6400
0
VERTEX
8
1
10
6578.5529
20
3664.5994
0
VERTEX
8
1
10
6639.2541
20
3652.5592
0
VERTEX
8
1
10
6699.9144
20
3640.5191
0
VERTEX
8
1
10
6760.5344
20
3628.4791
0
VERTEX
8
1
10
6821.1150
20
3616.4390
0
VERTEX
8
1
10
6881.6470
20
3604.3986
0
VERTEX
8
1
10
6914.3193
20
3597.8981
0
VERTEX
8
1
10
6915.4664
20
3599.8036
0
VERTEX
8
1
10
6918.7058
20
3605.3311
0
VERTEX
8
1
10
6923.7346
20
3614.1976
0
VERTEX
8
1
10
6930.2502
20
3626.1201
0
VERTEX
8
1
10
6937.9498
20
3640.8155
0
VERTEX
8
1
10
6946.5306
20
3658.0007
0
VERTEX
8
1
10
6955.6899
20
3677.3927
0
VERTEX
8
1
10
6965.1247
20
3698.7083
0
VERTEX
8
1
10
6974.5325
20
3721.6646
0
VERTEX
8
1
10
6983.6104
20
3745.9784
0
VERTEX
8
1
10
6992.0556
20
3771.3666
0
VERTEX
8
1
10
6999.5654
20
3797.5463
0
VERTEX
8
1
10
7005.8370
20
3824.2343
0
VERTEX
8
1
10
7010.5676
20
3851.1475
0
VERTEX
8
1
10
7013.4545
20
3878.0030
0
VERTEX
8
1
10
7014.1949
20
3904.5175
0
VERTEX
8
1
10
7012.4860
20
3930.4081
0
VERTEX
8
1
10
7008.0250
20
3955.3917
0
VERTEX
8
1
10
7000.5092
20
3979.1851
0
VERTEX
8
1
10
6989.6358
20
4001.5054
0
VERTEX
8
1
10
6978.5146
20
4017.9766
0
VERTEX
8
1
10
6965.3775
20
4033.3713
0
VERTEX
8
1
10
6950.5042
20
4047.7149
0
VERTEX
8
1
10
6934.1743
20
4061.0322
0
VERTEX
8
1
10
6916.6676
20
4073.3483
0
VERTEX
8
1
10
6898.2636
20
4084.6883
0
VERTEX
8
1
10
6879.2421
20
4095.0772
0
VERTEX
8
1
10
6859.8825
20
4104.5401
0
VERTEX
8
1
10
6840.4647
20
4113.1020
0
VERTEX
8
1
10
6821.2683
20
4120.7880
0
VERTEX
8
1
10
6802.5728
20
4127.6231
0
VERTEX
8
1
10
6784.6581
20
4133.6323
0
VERTEX
8
1
10
6767.8036
20
4138.8408
0
VERTEX
8
1
10
6752.2891
20
4143.2736
0
VERTEX
8
1
10
6738.3941
20
4146.9556
0
VERTEX
8
1
10
6726.3985
20
4149.9121
0
VERTEX
8
1
10
6716.5817
20
4152.1679
0
VERTEX
8
1
10
6709.2235
20
4153.7482
0
VERTEX
8
1
10
6704.6035
20
4154.6780
0
VERTEX
8
1
10
6703.0014
20
4154.9824
0
VERTEX
8
1
10
6692.6609
20
4128.1778
0
VERTEX
8
1
10
6657.6642
20
4037.5801
0
VERTEX
8
1
10
6622.6277
20
3947.0128
0
VERTEX
8
1
10
6587.5512
20
3856.4455
0
VERTEX
8
1
10
6552.4547
20
3765.8882
0
VERTEX
8
1
10
6517.8100
20
3676.6400
0
SEQEND
0
TEXT
8
19
62
3
10
6545.3073
20
3708.8875
40
12.0000
50
68.8360
1
CR2/2
0
ENDBLK
0
BLOCK
2
Panel29
10
0
20
0
30
0
70
0
0
POLYLINE
8
1
62
1
66
1
6
CONTINUOUS
70
1
0
VERTEX
8
1
10
6517.8100
20
3676.6400
0
VERTEX
8
1
10
6578.5519
20
3664.5996
0
VERTEX
8
1
10
6639.2526
20
3652.5595
0
VERTEX
8
1
10
6699.9127
20
3640.5195
0
VERTEX
8
1
10
6760.5328
20
3628.4794
0
VERTEX
8
1
10
6821.1139
20
3616.4392
0
VERTEX
8
1
10
6859.2257
20
3608.8589
0
VERTEX
8
1
10
6860.2477
20
3610.6804
0
VERTEX
8
1
10
6863.1257
20
3615.9594
0
VERTEX
8
1
10
6867.5782
20
3624.4177
0
VERTEX
8
1
10
6873.3233
20
3635.7771
0
VERTEX
8
1
10
6880.0796
20
3649.7593
0
VERTEX
8
1
10
6887.5651
20
3666.0862
0
VERTEX
8
1
10
6895.4983
20
3684.4794
0
VERTEX
8
1
10
6903.5975
20
3704.6609
0
VERTEX
8
1
10
6911.5810
20
3726.3523
0
VERTEX
8
1
10
6919.1671
20
3749.2754
0
VERTEX
8
1
10
6926.0740
20
3773.1520
0
VERTEX
8
1
10
6932.0202
20
3797.7039
0
VERTEX
8
1
10
6936.7239
20
3822.6529
0
VERTEX
8
1
10
6939.9034
20
3847.7207
0
VERTEX
8
1
10
6941.2771
20
3872.6291
0
VERTEX
8
1
10
6940.5632
20
3897.0998
0
VERTEX
8
1
10
6937.4801
20
3920.8548
0
VERTEX
8
1
10
6931.7461
20
3943.6157
0
VERTEX
8
1
10
6923.0795
20
3965.1043
0
VERTEX
8
1
10
6911.1986
20
3985.0424
0
VERTEX
8
1
10
6901.2525
20
3997.5193
0
VERTEX
8
1
10
6889.9145
20
4009.1796
0
VERTEX
8
1
10
6877.3902
20
4020.0424
0
VERTEX
8
1
10
6863.8852
20
4030.1268
0
VERTEX
8
1
10
6849.6053
20
4039.4520
0
VERTEX
8
1
10
6834.7562
20
4048.0370
0
VERTEX
8
1
10
6819.5434
20
4055.9010
0
VERTEX
8
1
10
6804.1727
20
4063.0631
0
VERTEX
8
1
10
6788.8498
20
4069.5424
0
VERTEX
8
1
10
6773.7802
20
4075.3580
0
VERTEX
8
1
10
6759.1697
20
4080.5290
0
VERTEX
8
1
10
6745.2240
20
4085.0746
0
VERTEX
8
1
10
6732.1487
20
4089.0138
0
VERTEX
8
1
10
6720.1495
20
4092.3657
0
VERTEX
8
1
10
6709.4320
20
4095.1496
0
VERTEX
8
1
10
6700.2020
20
4097.3844
0
VERTEX
8
1
10
6692.6650
20
4099.0893
0
VERTEX
8
1
10
6687.0269
20
4100.2834
0
VERTEX
8
1
10
6683.4931
20
4100.9859
0
VERTEX
8
1
10
6682.2695
20
4101.2158
0
VERTEX
8
1
10
6657.6806
20
4037.5737
0
VERTEX
8
1
10
6622.6400
20
3947.0079
0
VERTEX
8
1
10
6587.5593
20
3856.4422
0
VERTEX
8
1
10
6552.4587
20
3765.8866
0
VERTEX
8
1
10
6517.8100
20
3676.6400
0
SEQEND
0
TEXT
8
19
62
3
10
6545.3128
20
3708.8827
40
12.0000
50
68.8261
1
CR2/3
0
ENDBLK
0
BLOCK
2
Panel30
10
0
20
0
30
0
70
0
0
POLYLINE
8
1
62
1
66
1
6
CONTINUOUS
70
1
0
VERTEX
8
1
10
6517.8100
20
3676.6400
0
VERTEX
8
1
10
6578.5511
20
3664.5998
0
VERTEX
8
1
10
6639.2513
20
3652.5597
0
VERTEX
8
1
10
6699.9113
20
3640.5197
0
VERTEX
8
1
10
6760.5318
20
3628.4796
0
VERTEX
8
1
10
6789.1028
20
3622.7994
0
VERTEX
8
1
10
6790.1212
20
3624.5107
0
VERTEX
8
1
10
6792.9888
20
3629.4650
0
VERTEX
8
1
10
6797.4242
20
3637.3931
0
VERTEX
8
1
10
6803.1460
20
3648.0257
0
VERTEX
8
1
10
6809.8728
20
3661.0935
0
VERTEX
8
1
10
6817.3231
20
3676.3274
0
VERTEX
8
1
10
6825.2156
20
3693.4581
0
VERTEX
8
1
10
6833.2688
20
3712.2163
0
VERTEX
8
1
10
6841.2014
20
3732.3327
0
VERTEX
8
1
10
6848.7318
20
3753.5382
0
VERTEX
8
1
10
6855.5789
20
3775.5634
0
VERTEX
8
1
10
6861.4610
20
3798.1391
0
VERTEX
8
1
10
6866.0968
20
3820.9961
0
VERTEX
8
1
10
6869.2049
20
3843.8651
0
VERTEX
8
1
10
6870.5038
20
3866.4769
0
VERTEX
8
1
10
6869.7123
20
3888.5622
0
VERTEX
8
1
10
6866.5487
20
3909.8517
0
VERTEX
8
1
10
6860.7319
20
3930.0762
0
VERTEX
8
1
10
6851.9803
20
3948.9664
0
VERTEX
8
1
10
6840.0125
20
3966.2532
0
VERTEX
8
1
10
6831.7515
20
3975.2241
0
VERTEX
8
1
10
6822.5234
20
3983.6102
0
VERTEX
8
1
10
6812.4784
20
3991.4248
0
VERTEX
8
1
10
6801.7669
20
3998.6815
0
VERTEX
8
1
10
6790.5395
20
4005.3937
0
VERTEX
8
1
10
6778.9464
20
4011.5751
0
VERTEX
8
1
10
6767.1381
20
4017.2391
0
VERTEX
8
1
10
6755.2650
20
4022.3991
0
VERTEX
8
1
10
6743.4774
20
4027.0688
0
VERTEX
8
1
10
6731.9257
20
4031.2616
0
VERTEX
8
1
10
6720.7605
20
4034.9909
0
VERTEX
8
1
10
6710.1320
20
4038.2704
0
VERTEX
8
1
10
6700.1906
20
4041.1135
0
VERTEX
8
1
10
6691.0868
20
4043.5337
0
VERTEX
8
1
10
6682.9710
20
4045.5445
0
VERTEX
8
1
10
6675.9935
20
4047.1594
0
VERTEX
8
1
10
6670.3048
20
4048.3920
0
VERTEX
8
1
10
6666.0552
20
4049.2557
0
VERTEX
8
1
10
6663.3951
20
4049.7640
0
VERTEX
8
1
10
6662.4750
20
4049.9304
0
VERTEX
8
1
10
6657.6953
20
4037.5680
0
VERTEX
8
1
10
6622.6509
20
3947.0035
0
VERTEX
8
1
10
6587.5666
20
3856.4393
0
VERTEX
8
1
10
6552.4623
20
3765.8851
0
VERTEX
8
1
10
6517.8100
20
3676.6400
0
SEQEND
0
TEXT
8
19
62
3
10
6545.3181
20
3708.8782
40
12.0000
50
68.8167
1
CR2/4
0
ENDBLK
0
ENDSEC
0
SECTION
2
ENTITIES
0
INSERT
2
Panel1
8
0
10
0
20
0
30
0
0
INSERT
2
Panel2
8
0
10
0
20
0
30
0
0
INSERT
2
Panel3
8
0
10
0
20
0
30
0
0
INSERT
2
Panel4
8
0
10
0
20
0
30
0
0
INSERT
2
Panel5
8
0
10
0
20
0
30
0
0
INSERT
2
Panel6
8
0
10
0
20
0
30
0
0
INSERT
2
Panel7
8
0
10
0
20
0
30
0
0
INSERT
2
Panel8
8
0
10
0
20
0
30
0
0
INSERT
2
Panel9
8
0
10
0
20
0
30
0
0
INSERT
2
Panel10
8
0
10
0
20
0
30
0
0
INSERT
2
Panel11
8
0
10
0
20
0
30
0
0
INSERT
2
Panel12
8
0
10
0
20
0
30
0
0
INSERT
2
Panel13
8
0
10
0
20
0
30
0
0
INSERT
2
Panel14
8
0
10
0
20
0
30
0
0
INSERT
2
Panel15
8
0
10
0
20
0
30
0
0
INSERT
2
Panel16
8
0
10
0
20
0
30
0
0
INSERT
2
Panel17
8
0
10
0
20
0
30
0
0
INSERT
2
Panel18
8
0
10
0
20
0
30
0
0
INSERT
2
Panel19
8
0
10
0
20
0
30
0
0
INSERT
2
Panel20
8
0
10
0
20
0
30
0
0
INSERT
2
Panel21
8
0
10
0
20
0
30
0
0
INSERT
2
Panel22
8
0
10
0
20
0
30
0
0
INSERT
2
Panel23
8
0
10
0
20
0
30
0
0
INSERT
2
Panel24
8
0
10
0
20
0
30
0
0
INSERT
2
Panel25
8
0
10
0
20
0
30
0
0
INSERT
2
Panel26
8
0
10
0
20
0
30
0
0
INSERT
2
Panel27
8
0
10
0
20
0
30
0
0
INSERT
2
Panel28
8
0
10
0
20
0
30
0
0
INSERT
2
Panel29
8
0
10
0
20
0
30
0
0
INSERT
2
Panel30
8
0
10
0
20
0
30
0
0
ENDSEC
0
EOF
