0
SECTION
2
BLOCKS
0
BLOCK
2
Panel1
10
0
20
0
30
0
70
0
0
POLYLINE
8
1
62
1
66
1
6
CONTINUOUS
70
1
0
VERTEX
8
1
10
16760.9600
20
422.2700
0
VERTEX
8
1
10
16823.4391
20
411.6082
0
VERTEX
8
1
10
16889.6099
20
400.1995
0
VERTEX
8
1
10
16959.4151
20
388.1234
0
VERTEX
8
1
10
17032.8180
20
375.4094
0
VERTEX
8
1
10
17109.7609
20
362.1272
0
VERTEX
8
1
10
17190.2068
20
348.3062
0
VERTEX
8
1
10
17274.0984
20
334.0159
0
VERTEX
8
1
10
17361.3884
20
319.2959
0
VERTEX
8
1
10
17452.0296
20
304.2057
0
VERTEX
8
1
10
17545.9650
20
288.7848
0
VERTEX
8
1
10
17643.1575
20
273.1028
0
VERTEX
8
1
10
17743.5602
20
257.1992
0
VERTEX
8
1
10
17847.1066
20
241.1235
0
VERTEX
8
1
10
17953.7599
20
224.9354
0
VERTEX
8
1
10
17987.9726
20
219.8621
0
VERTEX
8
1
10
17989.8608
20
222.5203
0
VERTEX
8
1
10
17994.3633
20
228.9430
0
VERTEX
8
1
10
16832.1165
20
633.8401
0
VERTEX
8
1
10
16820.9522
20
600.6399
0
VERTEX
8
1
10
16790.9714
20
511.4645
0
VERTEX
8
1
10
16760.9600
20
422.2700
0
SEQEND
0
POLYLINE
8
8
62
8
66
1
6
CONTINUOUS
0
VERTEX
8
8
10
17988.3814
20
220.4375
0
VERTEX
8
8
10
17978.9380
20
223.7273
0
SEQEND
0
TEXT
8
19
62
3
10
16851.1191
20
612.3948
40
12.0000
50
340.7930
1
C1/1
0
ENDBLK
0
BLOCK
2
Panel2
10
0
20
0
30
0
70
0
0
POLYLINE
8
1
62
1
66
1
6
CONTINUOUS
70
1
0
VERTEX
8
1
10
16760.9600
20
422.2700
0
VERTEX
8
1
10
16823.4391
20
411.6082
0
VERTEX
8
1
10
16889.6099
20
400.1995
0
VERTEX
8
1
10
16959.4151
20
388.1234
0
VERTEX
8
1
10
17032.8180
20
375.4094
0
VERTEX
8
1
10
17109.7609
20
362.1272
0
VERTEX
8
1
10
17190.2068
20
348.3062
0
VERTEX
8
1
10
17274.0984
20
334.0159
0
VERTEX
8
1
10
17361.3884
20
319.2959
0
VERTEX
8
1
10
17452.0296
20
304.2057
0
VERTEX
8
1
10
17545.9650
20
288.7848
0
VERTEX
8
1
10
17643.1575
20
273.1028
0
VERTEX
8
1
10
17743.5602
20
257.1992
0
VERTEX
8
1
10
17847.1066
20
241.1235
0
VERTEX
8
1
10
17953.7599
20
224.9354
0
VERTEX
8
1
10
17987.9726
20
219.8621
0
VERTEX
8
1
10
17989.8608
20
222.5203
0
VERTEX
8
1
10
17995.3070
20
230.2892
0
VERTEX
8
1
10
18003.9838
20
242.8603
0
VERTEX
8
1
10
18015.5638
20
259.9249
0
VERTEX
8
1
10
18029.7196
20
281.1746
0
VERTEX
8
1
10
18046.1238
20
306.3008
0
VERTEX
8
1
10
18064.4489
20
334.9949
0
VERTEX
8
1
10
18084.3676
20
366.9483
0
VERTEX
8
1
10
18105.5523
20
401.8524
0
VERTEX
8
1
10
18127.6758
20
439.3988
0
VERTEX
8
1
10
18150.4106
20
479.2789
0
VERTEX
8
1
10
18173.4293
20
521.1840
0
VERTEX
8
1
10
18196.4044
20
564.8057
0
VERTEX
8
1
10
18219.0085
20
609.8353
0
VERTEX
8
1
10
18230.5177
20
634.0712
0
VERTEX
8
1
10
16835.8274
20
644.8757
0
VERTEX
8
1
10
16820.9522
20
600.6399
0
VERTEX
8
1
10
16790.9714
20
511.4645
0
VERTEX
8
1
10
16760.9600
20
422.2700
0
SEQEND
0
POLYLINE
8
8
62
8
66
1
6
CONTINUOUS
0
VERTEX
8
8
10
18225.7862
20
624.1076
0
VERTEX
8
8
10
18215.7865
20
624.1850
0
SEQEND
0
TEXT
8
19
62
3
10
16860.7182
20
630.6825
40
12.0000
50
359.5561
1
C1/2
0
ENDBLK
0
BLOCK
2
Panel3
10
0
20
0
30
0
70
0
0
POLYLINE
8
1
62
1
66
1
6
CONTINUOUS
70
1
0
VERTEX
8
1
10
16760.9600
20
422.2700
0
VERTEX
8
1
10
16823.4391
20
411.6082
0
VERTEX
8
1
10
16889.6099
20
400.1995
0
VERTEX
8
1
10
16959.4151
20
388.1234
0
VERTEX
8
1
10
17032.8180
20
375.4094
0
VERTEX
8
1
10
17109.7609
20
362.1272
0
VERTEX
8
1
10
17190.2068
20
348.3062
0
VERTEX
8
1
10
17219.2890
20
343.3522
0
VERTEX
8
1
10
18225.7862
20
624.1076
0
VERTEX
8
1
10
18240.9143
20
655.9643
0
VERTEX
8
1
10
18261.7943
20
702.8842
0
VERTEX
8
1
10
18281.3211
20
750.2863
0
VERTEX
8
1
10
18299.1673
20
797.8622
0
VERTEX
8
1
10
18315.0054
20
845.3032
0
VERTEX
8
1
10
18328.5080
20
892.3008
0
VERTEX
8
1
10
18328.5080
20
892.3008
0
VERTEX
8
1
10
18340.6396
20
944.6143
0
VERTEX
8
1
10
18349.3826
20
995.8908
0
VERTEX
8
1
10
18354.7573
20
1046.0559
0
VERTEX
8
1
10
18356.6822
20
1092.5798
0
VERTEX
8
1
10
16844.5375
20
670.7776
0
VERTEX
8
1
10
16820.9522
20
600.6399
0
VERTEX
8
1
10
16790.9714
20
511.4645
0
VERTEX
8
1
10
16760.9600
20
422.2700
0
SEQEND
0
POLYLINE
8
8
62
8
66
1
6
CONTINUOUS
0
VERTEX
8
8
10
18356.2476
20
1082.0768
0
VERTEX
8
8
10
18346.6154
20
1079.3900
0
SEQEND
0
TEXT
8
19
62
3
10
16872.3798
20
664.0095
40
12.0000
50
15.5861
1
C1/3
0
ENDBLK
0
BLOCK
2
Panel4
10
0
20
0
30
0
70
0
0
POLYLINE
8
1
62
1
66
1
6
CONTINUOUS
70
1
0
VERTEX
8
1
10
16760.9600
20
422.2700
0
VERTEX
8
1
10
16823.4391
20
411.6082
0
VERTEX
8
1
10
16889.6099
20
400.1995
0
VERTEX
8
1
10
16959.4151
20
388.1234
0
VERTEX
8
1
10
17032.8180
20
375.4094
0
VERTEX
8
1
10
17071.2107
20
368.7819
0
VERTEX
8
1
10
18356.2476
20
1082.0768
0
VERTEX
8
1
10
18356.7838
20
1095.0351
0
VERTEX
8
1
10
18355.4824
20
1142.7540
0
VERTEX
8
1
10
18350.8734
20
1189.1382
0
VERTEX
8
1
10
18342.9770
20
1234.1133
0
VERTEX
8
1
10
18331.8134
20
1277.6048
0
VERTEX
8
1
10
18317.4028
20
1319.5384
0
VERTEX
8
1
10
18299.7655
20
1359.8397
0
VERTEX
8
1
10
18278.9218
20
1398.4342
0
VERTEX
8
1
10
18254.8918
20
1435.2474
0
VERTEX
8
1
10
18227.6958
20
1470.2051
0
VERTEX
8
1
10
18217.7224
20
1481.0614
0
VERTEX
8
1
10
16864.3997
20
729.8626
0
VERTEX
8
1
10
16850.9325
20
689.7952
0
VERTEX
8
1
10
16820.9522
20
600.6399
0
VERTEX
8
1
10
16790.9714
20
511.4645
0
VERTEX
8
1
10
16760.9600
20
422.2700
0
SEQEND
0
POLYLINE
8
8
62
8
66
1
6
CONTINUOUS
0
VERTEX
8
8
10
18224.6811
20
1473.4867
0
VERTEX
8
8
10
18215.9377
20
1468.6335
0
SEQEND
0
TEXT
8
19
62
3
10
16893.0526
20
729.7550
40
12.0000
50
29.0337
1
C1/4
0
ENDBLK
0
BLOCK
2
Panel5
10
0
20
0
30
0
70
0
0
POLYLINE
8
1
62
1
66
1
6
CONTINUOUS
70
1
0
VERTEX
8
1
10
16760.9600
20
422.2700
0
VERTEX
8
1
10
16823.4391
20
411.6082
0
VERTEX
8
1
10
16889.6099
20
400.1995
0
VERTEX
8
1
10
16959.4151
20
388.1234
0
VERTEX
8
1
10
17014.7493
20
378.5390
0
VERTEX
8
1
10
18224.6811
20
1473.4867
0
VERTEX
8
1
10
18197.3541
20
1503.2328
0
VERTEX
8
1
10
18163.8868
20
1534.2560
0
VERTEX
8
1
10
18127.3142
20
1563.2004
0
VERTEX
8
1
10
18087.6565
20
1589.9915
0
VERTEX
8
1
10
18044.9341
20
1614.5550
0
VERTEX
8
1
10
17999.1670
20
1636.8163
0
VERTEX
8
1
10
17950.3756
20
1656.7012
0
VERTEX
8
1
10
17950.3756
20
1656.7012
0
VERTEX
8
1
10
17905.1918
20
1672.1495
0
VERTEX
8
1
10
17858.1496
20
1685.8199
0
VERTEX
8
1
10
17843.2921
20
1689.4995
0
VERTEX
8
1
10
16900.0496
20
835.8966
0
VERTEX
8
1
10
16880.8922
20
778.9308
0
VERTEX
8
1
10
16850.9325
20
689.7952
0
VERTEX
8
1
10
16820.9522
20
600.6399
0
VERTEX
8
1
10
16790.9714
20
511.4645
0
VERTEX
8
1
10
16760.9600
20
422.2700
0
SEQEND
0
POLYLINE
8
8
62
8
66
1
6
CONTINUOUS
0
VERTEX
8
8
10
17854.9931
20
1686.6016
0
VERTEX
8
8
10
17847.5785
20
1679.8916
0
SEQEND
0
TEXT
8
19
62
3
10
16927.9800
20
842.2910
40
12.0000
50
42.1440
1
C1/5
0
ENDBLK
0
BLOCK
2
Panel6
10
0
20
0
30
0
70
0
0
POLYLINE
8
1
62
1
66
1
6
CONTINUOUS
70
1
0
VERTEX
8
1
10
16760.9600
20
422.2700
0
VERTEX
8
1
10
16823.4391
20
411.6082
0
VERTEX
8
1
10
16889.6099
20
400.1995
0
VERTEX
8
1
10
16959.4151
20
388.1234
0
VERTEX
8
1
10
16987.6475
20
383.2333
0
VERTEX
8
1
10
17854.9931
20
1686.6016
0
VERTEX
8
1
10
17809.7005
20
1697.8189
0
VERTEX
8
1
10
17760.2960
20
1708.2531
0
VERTEX
8
1
10
17710.3877
20
1717.2292
0
VERTEX
8
1
10
17660.4271
20
1724.8536
0
VERTEX
8
1
10
17610.8656
20
1731.2331
0
VERTEX
8
1
10
17562.1548
20
1736.4742
0
VERTEX
8
1
10
17514.7461
20
1740.6834
0
VERTEX
8
1
10
17469.0912
20
1743.9674
0
VERTEX
8
1
10
17425.6415
20
1746.4327
0
VERTEX
8
1
10
17384.8485
20
1748.1860
0
VERTEX
8
1
10
17347.1637
20
1749.3339
0
VERTEX
8
1
10
17313.0386
20
1749.9828
0
VERTEX
8
1
10
17282.9248
20
1750.2395
0
VERTEX
8
1
10
17257.2737
20
1750.2105
0
VERTEX
8
1
10
17236.5370
20
1750.0024
0
VERTEX
8
1
10
17221.1660
20
1749.7218
0
VERTEX
8
1
10
17211.6123
20
1749.4753
0
VERTEX
8
1
10
17208.3274
20
1749.3694
0
VERTEX
8
1
10
17181.1832
20
1669.3824
0
VERTEX
8
1
10
17151.0259
20
1580.3970
0
VERTEX
8
1
10
17120.9094
20
1491.4038
0
VERTEX
8
1
10
17090.8334
20
1402.4018
0
VERTEX
8
1
10
17060.7873
20
1313.3803
0
VERTEX
8
1
10
17030.7711
20
1224.3486
0
VERTEX
8
1
10
17000.7744
20
1135.2964
0
VERTEX
8
1
10
16970.7871
20
1046.2237
0
VERTEX
8
1
10
16940.8196
20
957.1501
0
VERTEX
8
1
10
16910.8611
20
868.0456
0
VERTEX
8
1
10
16880.8922
20
778.9308
0
VERTEX
8
1
10
16850.9325
20
689.7952
0
VERTEX
8
1
10
16820.9522
20
600.6399
0
VERTEX
8
1
10
16790.9714
20
511.4645
0
VERTEX
8
1
10
16760.9600
20
422.2700
0
SEQEND
0
POLYLINE
8
8
62
8
66
1
6
CONTINUOUS
0
VERTEX
8
8
10
17218.9800
20
1749.6654
0
VERTEX
8
8
10
17215.7856
20
1740.1893
0
SEQEND
0
TEXT
8
19
62
3
10
16782.2125
20
441.4880
40
12.0000
50
71.3710
1
C1/6
0
ENDBLK
0
BLOCK
2
Panel7
10
0
20
0
30
0
70
0
0
POLYLINE
8
1
62
1
66
1
6
CONTINUOUS
70
1
0
VERTEX
8
1
10
16760.9600
20
422.2700
0
VERTEX
8
1
10
16823.4391
20
411.6082
0
VERTEX
8
1
10
16889.6099
20
400.1995
0
VERTEX
8
1
10
16959.4151
20
388.1234
0
VERTEX
8
1
10
16968.3907
20
386.5687
0
VERTEX
8
1
10
17218.9800
20
1749.6654
0
VERTEX
8
1
10
17211.6123
20
1749.4753
0
VERTEX
8
1
10
17208.3274
20
1749.3694
0
VERTEX
8
1
10
17181.1832
20
1669.3824
0
VERTEX
8
1
10
17151.0259
20
1580.3970
0
VERTEX
8
1
10
17120.9094
20
1491.4038
0
VERTEX
8
1
10
17090.8334
20
1402.4018
0
VERTEX
8
1
10
17060.7873
20
1313.3803
0
VERTEX
8
1
10
17030.7711
20
1224.3486
0
VERTEX
8
1
10
17000.7744
20
1135.2964
0
VERTEX
8
1
10
16970.7871
20
1046.2237
0
VERTEX
8
1
10
16940.8196
20
957.1501
0
VERTEX
8
1
10
16910.8611
20
868.0456
0
VERTEX
8
1
10
16880.8922
20
778.9308
0
VERTEX
8
1
10
16850.9325
20
689.7952
0
VERTEX
8
1
10
16820.9522
20
600.6399
0
VERTEX
8
1
10
16790.9714
20
511.4645
0
VERTEX
8
1
10
16760.9600
20
422.2700
0
SEQEND
0
TEXT
8
19
62
3
10
16782.2125
20
441.4880
40
12.0000
50
71.3710
1
C1/7
0
ENDBLK
0
ENDSEC
0
SECTION
2
ENTITIES
0
INSERT
2
Panel1
8
0
10
0
20
0
30
0
0
INSERT
2
Panel2
8
0
10
0
20
0
30
0
0
INSERT
2
Panel3
8
0
10
0
20
0
30
0
0
INSERT
2
Panel4
8
0
10
0
20
0
30
0
0
INSERT
2
Panel5
8
0
10
0
20
0
30
0
0
INSERT
2
Panel6
8
0
10
0
20
0
30
0
0
INSERT
2
Panel7
8
0
10
0
20
0
30
0
0
ENDSEC
0
EOF
