0
SECTION
2
BLOCKS
0
BLOCK
2
Panel1
10
0
20
0
30
0
70
0
0
POLYLINE
8
1
62
1
66
1
6
CONTINUOUS
70
1
0
VERTEX
8
1
10
7254.0687
20
901.9327
0
VERTEX
8
1
10
7242.3148
20
900.4713
0
VERTEX
8
1
10
7205.6483
20
896.0256
0
VERTEX
8
1
10
7171.9828
20
892.2029
0
VERTEX
8
1
10
7130.6004
20
887.6519
0
VERTEX
8
1
10
7085.4269
20
882.9031
0
VERTEX
8
1
10
7036.2867
20
877.9117
0
VERTEX
8
1
10
6983.7814
20
872.7414
0
VERTEX
8
1
10
6928.1518
20
867.4127
0
VERTEX
8
1
10
6869.6571
20
861.9607
0
VERTEX
8
1
10
6808.4846
20
856.3884
0
VERTEX
8
1
10
6744.7948
20
850.7298
0
VERTEX
8
1
10
6678.7458
20
844.9789
0
VERTEX
8
1
10
6610.4284
20
839.1808
0
VERTEX
8
1
10
6539.9747
20
833.3118
0
VERTEX
8
1
10
6467.4661
20
827.4081
0
VERTEX
8
1
10
6392.9824
20
821.4764
0
VERTEX
8
1
10
6316.6012
20
815.5243
0
VERTEX
8
1
10
6238.3910
20
809.5798
0
VERTEX
8
1
10
6158.4143
20
803.6308
0
VERTEX
8
1
10
6076.7338
20
797.7053
0
VERTEX
8
1
10
5993.3801
20
791.8113
0
VERTEX
8
1
10
5908.4054
20
785.9681
0
VERTEX
8
1
10
5821.8752
20
780.1748
0
VERTEX
8
1
10
5733.8035
20
774.4588
0
VERTEX
8
1
10
5644.2456
20
768.8095
0
VERTEX
8
1
10
5553.2349
20
763.2564
0
VERTEX
8
1
10
5460.7975
20
757.7982
0
VERTEX
8
1
10
5366.9682
20
752.4732
0
VERTEX
8
1
10
5271.7841
20
747.2698
0
VERTEX
8
1
10
5175.2594
20
742.2085
0
VERTEX
8
1
10
5077.4203
20
737.3162
0
VERTEX
8
1
10
4978.3132
20
732.5846
0
VERTEX
8
1
10
4877.9442
20
728.0398
0
VERTEX
8
1
10
4776.3290
20
723.6919
0
VERTEX
8
1
10
4673.5130
20
719.5791
0
VERTEX
8
1
10
4569.4937
20
715.6799
0
VERTEX
8
1
10
4464.3160
20
712.0338
0
VERTEX
8
1
10
4357.9763
20
708.6468
0
VERTEX
8
1
10
4250.4984
20
705.5758
0
VERTEX
8
1
10
4141.9057
20
702.8992
0
VERTEX
8
1
10
4032.2052
20
700.6398
0
VERTEX
8
1
10
3921.4239
20
698.8169
0
VERTEX
8
1
10
3809.5795
20
697.4278
0
VERTEX
8
1
10
3696.6777
20
696.5118
0
VERTEX
8
1
10
3582.7473
20
696.0470
0
VERTEX
8
1
10
3467.7940
20
696.0615
0
VERTEX
8
1
10
3351.8456
20
696.5433
0
VERTEX
8
1
10
3234.9076
20
697.5203
0
VERTEX
8
1
10
3116.9869
20
699.0021
0
VERTEX
8
1
10
2998.1199
20
700.9857
0
VERTEX
8
1
10
2878.2929
20
703.4669
0
VERTEX
8
1
10
2757.5418
20
706.4781
0
VERTEX
8
1
10
2635.8726
20
710.0048
0
VERTEX
8
1
10
2513.3007
20
714.0657
0
VERTEX
8
1
10
2389.8417
20
718.6581
0
VERTEX
8
1
10
2265.4888
20
723.7965
0
VERTEX
8
1
10
2140.2599
20
729.4617
0
VERTEX
8
1
10
2014.1872
20
735.6918
0
VERTEX
8
1
10
1887.2559
20
742.4611
0
VERTEX
8
1
10
1759.5003
20
749.7799
0
VERTEX
8
1
10
1630.9131
20
757.6529
0
VERTEX
8
1
10
1501.5063
20
766.0648
0
VERTEX
8
1
10
1371.3033
20
775.0251
0
VERTEX
8
1
10
1240.3032
20
784.5152
0
VERTEX
8
1
10
1108.5099
20
794.5454
0
VERTEX
8
1
10
975.9483
20
805.0743
0
VERTEX
8
1
10
842.6109
20
816.1007
0
VERTEX
8
1
10
708.5089
20
827.5815
0
VERTEX
8
1
10
573.6377
20
839.5006
0
VERTEX
8
1
10
438.0231
20
851.7726
0
VERTEX
8
1
10
301.6528
20
864.3254
0
VERTEX
8
1
10
164.4893
20
877.0342
0
VERTEX
8
1
10
26.0569
20
889.7292
0
VERTEX
8
1
10
-112.1416
20
901.9327
0
VERTEX
8
1
10
-100.8965
20
946.0109
0
VERTEX
8
1
10
-86.4668
20
1002.6156
0
VERTEX
8
1
10
-74.8097
20
1048.3354
0
VERTEX
8
1
10
-62.0906
20
1098.2206
0
VERTEX
8
1
10
-49.6016
20
1147.2640
0
VERTEX
8
1
10
-37.1277
20
1196.2064
0
VERTEX
8
1
10
-24.6225
20
1245.3306
0
VERTEX
8
1
10
-12.1229
20
1294.3644
0
VERTEX
8
1
10
0.3752
20
1343.4282
0
VERTEX
8
1
10
12.8738
20
1392.4820
0
VERTEX
8
1
10
25.3823
20
1441.5363
0
VERTEX
8
1
10
37.8914
20
1490.5806
0
VERTEX
8
1
10
50.3995
20
1539.6448
0
VERTEX
8
1
10
62.9256
20
1588.7500
0
VERTEX
8
1
10
75.3786
20
1637.5013
0
VERTEX
8
1
10
88.1082
20
1687.3770
0
VERTEX
8
1
10
100.3773
20
1735.3686
0
VERTEX
8
1
10
112.4183
20
1782.4783
0
VERTEX
8
1
10
125.5723
20
1834.0296
0
VERTEX
8
1
10
131.8364
20
1858.5790
0
VERTEX
8
1
10
261.8564
20
1847.2642
0
VERTEX
8
1
10
394.7105
20
1835.6929
0
VERTEX
8
1
10
526.4625
20
1824.2006
0
VERTEX
8
1
10
657.1729
20
1812.7895
0
VERTEX
8
1
10
786.9084
20
1801.4493
0
VERTEX
8
1
10
915.6838
20
1790.1903
0
VERTEX
8
1
10
1043.5322
20
1779.0112
0
VERTEX
8
1
10
1170.4662
20
1767.9019
0
VERTEX
8
1
10
1296.4967
20
1756.8559
0
VERTEX
8
1
10
1421.6427
20
1745.8946
0
VERTEX
8
1
10
1545.8940
20
1735.0009
0
VERTEX
8
1
10
1669.2671
20
1724.1853
0
VERTEX
8
1
10
1791.7556
20
1713.4432
0
VERTEX
8
1
10
1913.3681
20
1702.7699
0
VERTEX
8
1
10
2034.1104
20
1692.1723
0
VERTEX
8
1
10
2153.9635
20
1681.6438
0
VERTEX
8
1
10
2272.9378
20
1671.2005
0
VERTEX
8
1
10
2391.0273
20
1660.8249
0
VERTEX
8
1
10
2508.2423
20
1650.5216
0
VERTEX
8
1
10
2624.5468
20
1640.3053
0
VERTEX
8
1
10
2739.9711
20
1630.1576
0
VERTEX
8
1
10
2854.4963
20
1620.0845
0
VERTEX
8
1
10
2968.1042
20
1610.0976
0
VERTEX
8
1
10
3080.8050
20
1600.1801
0
VERTEX
8
1
10
3192.5954
20
1590.3451
0
VERTEX
8
1
10
3303.4417
20
1580.5967
0
VERTEX
8
1
10
3413.3686
20
1570.9270
0
VERTEX
8
1
10
3522.3504
20
1561.3294
0
VERTEX
8
1
10
3630.3718
20
1551.8263
0
VERTEX
8
1
10
3737.4353
20
1542.3989
0
VERTEX
8
1
10
3843.5254
20
1533.0622
0
VERTEX
8
1
10
3948.6302
20
1523.8072
0
VERTEX
8
1
10
4052.7359
20
1514.6470
0
VERTEX
8
1
10
4155.8427
20
1505.5633
0
VERTEX
8
1
10
4257.9102
20
1496.5861
0
VERTEX
8
1
10
4358.9580
20
1487.6861
0
VERTEX
8
1
10
4458.9602
20
1478.8756
0
VERTEX
8
1
10
4557.8989
20
1470.1680
0
VERTEX
8
1
10
4655.7746
20
1461.5476
0
VERTEX
8
1
10
4752.5546
20
1453.0256
0
VERTEX
8
1
10
4848.2224
20
1444.6060
0
VERTEX
8
1
10
4942.7837
20
1436.2819
0
VERTEX
8
1
10
5036.1908
20
1428.0542
0
VERTEX
8
1
10
5128.4406
20
1419.9373
0
VERTEX
8
1
10
5219.5045
20
1411.9211
0
VERTEX
8
1
10
5309.3702
20
1404.0096
0
VERTEX
8
1
10
5398.0092
20
1396.2141
0
VERTEX
8
1
10
5485.3897
20
1388.5262
0
VERTEX
8
1
10
5571.4888
20
1380.9581
0
VERTEX
8
1
10
5656.2953
20
1373.5019
0
VERTEX
8
1
10
5739.7506
20
1366.1674
0
VERTEX
8
1
10
5821.8469
20
1358.9585
0
VERTEX
8
1
10
5902.5349
20
1351.8651
0
VERTEX
8
1
10
5981.7784
20
1344.9101
0
VERTEX
8
1
10
6059.5506
20
1338.0946
0
VERTEX
8
1
10
6135.8026
20
1331.3998
0
VERTEX
8
1
10
6210.4861
20
1324.8591
0
VERTEX
8
1
10
6283.5549
20
1318.4530
0
VERTEX
8
1
10
6354.9558
20
1312.2055
0
VERTEX
8
1
10
6424.6171
20
1306.1074
0
VERTEX
8
1
10
6492.4971
20
1300.1635
0
VERTEX
8
1
10
6558.4862
20
1294.3966
0
VERTEX
8
1
10
6622.5351
20
1288.8011
0
VERTEX
8
1
10
6684.5371
20
1283.3921
0
VERTEX
8
1
10
6744.3848
20
1278.1653
0
VERTEX
8
1
10
6801.9383
20
1273.1486
0
VERTEX
8
1
10
6857.0472
20
1268.3473
0
VERTEX
8
1
10
6909.5106
20
1263.7810
0
VERTEX
8
1
10
6959.0880
20
1259.4674
0
VERTEX
8
1
10
7005.3927
20
1255.4475
0
VERTEX
8
1
10
7047.9293
20
1251.7458
0
VERTEX
8
1
10
7085.7786
20
1248.4683
0
VERTEX
8
1
10
7117.2348
20
1245.7359
0
VERTEX
8
1
10
7124.5713
20
1245.1004
0
VERTEX
8
1
10
7134.6755
20
1219.1315
0
VERTEX
8
1
10
7137.3253
20
1212.3212
0
VERTEX
8
1
10
7143.7179
20
1195.3316
0
VERTEX
8
1
10
7151.9898
20
1173.3320
0
VERTEX
8
1
10
7160.2179
20
1151.4713
0
VERTEX
8
1
10
7167.1834
20
1132.9370
0
VERTEX
8
1
10
7173.2625
20
1116.7890
0
VERTEX
8
1
10
7178.9861
20
1101.5616
0
VERTEX
8
1
10
7184.9037
20
1085.8293
0
VERTEX
8
1
10
7191.2096
20
1069.0773
0
VERTEX
8
1
10
7197.6352
20
1051.9786
0
VERTEX
8
1
10
7203.9306
20
1035.2464
0
VERTEX
8
1
10
7209.8376
20
1019.5338
0
VERTEX
8
1
10
7215.5715
20
1004.2967
0
VERTEX
8
1
10
7221.6620
20
988.0990
0
VERTEX
8
1
10
7228.6597
20
969.4855
0
VERTEX
8
1
10
7236.8992
20
947.5751
0
VERTEX
8
1
10
7245.1600
20
925.6153
0
VERTEX
8
1
10
7251.5206
20
908.6948
0
VERTEX
8
1
10
7254.0687
20
901.9327
0
SEQEND
0
POLYLINE
8
8
62
8
66
1
6
CONTINUOUS
0
VERTEX
8
8
10
125.5723
20
1834.0296
0
VERTEX
8
8
10
259.6890
20
1822.3583
0
VERTEX
8
8
10
392.5413
20
1810.7872
0
VERTEX
8
8
10
524.2901
20
1799.2951
0
VERTEX
8
8
10
654.9987
20
1787.8842
0
VERTEX
8
8
10
784.7315
20
1776.5443
0
VERTEX
8
8
10
913.5063
20
1765.2853
0
VERTEX
8
8
10
1041.3545
20
1754.1062
0
VERTEX
8
8
10
1168.2865
20
1742.9971
0
VERTEX
8
8
10
1294.3139
20
1731.9513
0
VERTEX
8
8
10
1419.4613
20
1720.9899
0
VERTEX
8
8
10
1543.7105
20
1710.0964
0
VERTEX
8
8
10
1667.0838
20
1699.2809
0
VERTEX
8
8
10
1789.5716
20
1688.5388
0
VERTEX
8
8
10
1911.1824
20
1677.8657
0
VERTEX
8
8
10
2031.9245
20
1667.2680
0
VERTEX
8
8
10
2151.7758
20
1656.7397
0
VERTEX
8
8
10
2270.7517
20
1646.2963
0
VERTEX
8
8
10
2388.8392
20
1635.9209
0
VERTEX
8
8
10
2506.0532
20
1625.6176
0
VERTEX
8
8
10
2622.3592
20
1615.4012
0
VERTEX
8
8
10
2737.7817
20
1605.2536
0
VERTEX
8
8
10
2852.3059
20
1595.1807
0
VERTEX
8
8
10
2965.9149
20
1585.1936
0
VERTEX
8
8
10
3078.6135
20
1575.2763
0
VERTEX
8
8
10
3190.4044
20
1565.4413
0
VERTEX
8
8
10
3301.2515
20
1555.6929
0
VERTEX
8
8
10
3411.1779
20
1546.0232
0
VERTEX
8
8
10
3520.1573
20
1536.4258
0
VERTEX
8
8
10
3628.1809
20
1526.9225
0
VERTEX
8
8
10
3735.2425
20
1517.4953
0
VERTEX
8
8
10
3841.3337
20
1508.1585
0
VERTEX
8
8
10
3946.4373
20
1498.9035
0
VERTEX
8
8
10
4050.5447
20
1489.7432
0
VERTEX
8
8
10
4153.6487
20
1480.6597
0
VERTEX
8
8
10
4255.7198
20
1471.6823
0
VERTEX
8
8
10
4356.7646
20
1462.7825
0
VERTEX
8
8
10
4456.7661
20
1453.9720
0
VERTEX
8
8
10
4555.7071
20
1445.2642
0
VERTEX
8
8
10
4653.5813
20
1436.6440
0
VERTEX
8
8
10
4750.3617
20
1428.1219
0
VERTEX
8
8
10
4846.0307
20
1419.7023
0
VERTEX
8
8
10
4940.5915
20
1411.3782
0
VERTEX
8
8
10
5033.9972
20
1403.1506
0
VERTEX
8
8
10
5126.2494
20
1395.0335
0
VERTEX
8
8
10
5217.3123
20
1387.0174
0
VERTEX
8
8
10
5307.1777
20
1379.1060
0
VERTEX
8
8
10
5395.8190
20
1371.3103
0
VERTEX
8
8
10
5483.1986
20
1363.6224
0
VERTEX
8
8
10
5569.2997
20
1356.0541
0
VERTEX
8
8
10
5654.1058
20
1348.5980
0
VERTEX
8
8
10
5737.5619
20
1341.2634
0
VERTEX
8
8
10
5819.6601
20
1334.0544
0
VERTEX
8
8
10
5900.3456
20
1326.9611
0
VERTEX
8
8
10
5979.5926
20
1320.0059
0
VERTEX
8
8
10
6057.3681
20
1313.1900
0
VERTEX
8
8
10
6133.6161
20
1306.4956
0
VERTEX
8
8
10
6208.3050
20
1299.9545
0
VERTEX
8
8
10
6281.3715
20
1293.5486
0
VERTEX
8
8
10
6352.7767
20
1287.3007
0
VERTEX
8
8
10
6422.4369
20
1281.2027
0
VERTEX
8
8
10
6490.3163
20
1275.2588
0
VERTEX
8
8
10
6556.3097
20
1269.4915
0
VERTEX
8
8
10
6620.3593
20
1263.8959
0
VERTEX
8
8
10
6682.3644
20
1258.4867
0
VERTEX
8
8
10
6742.2097
20
1253.2601
0
VERTEX
8
8
10
6799.7674
20
1248.2430
0
VERTEX
8
8
10
6854.8774
20
1243.4417
0
VERTEX
8
8
10
6907.3429
20
1238.8751
0
VERTEX
8
8
10
6956.9210
20
1234.5615
0
VERTEX
8
8
10
7003.2305
20
1230.5412
0
VERTEX
8
8
10
7045.7619
20
1226.8400
0
VERTEX
8
8
10
7083.6218
20
1223.5615
0
VERTEX
8
8
10
7115.0714
20
1220.8297
0
VERTEX
8
8
10
7134.6755
20
1219.1315
0
SEQEND
0
TEXT
8
19
62
3
10
-87.1505
20
900.7298
40
12.0000
50
-5.0464
1
1
0
ENDBLK
0
BLOCK
2
Panel2
10
0
20
0
30
0
70
0
0
POLYLINE
8
1
62
1
66
1
6
CONTINUOUS
70
1
0
VERTEX
8
1
10
7036.0165
20
1902.0788
0
VERTEX
8
1
10
7009.0889
20
1902.1037
0
VERTEX
8
1
10
6966.1044
20
1902.1398
0
VERTEX
8
1
10
6914.5860
20
1902.1706
0
VERTEX
8
1
10
6856.7786
20
1902.1973
0
VERTEX
8
1
10
6793.8244
20
1902.2253
0
VERTEX
8
1
10
6726.4205
20
1902.2571
0
VERTEX
8
1
10
6654.9998
20
1902.2824
0
VERTEX
8
1
10
6579.9172
20
1902.2983
0
VERTEX
8
1
10
6501.4363
20
1902.3142
0
VERTEX
8
1
10
6419.7633
20
1902.3258
0
VERTEX
8
1
10
6335.0785
20
1902.3401
0
VERTEX
8
1
10
6247.5359
20
1902.3428
0
VERTEX
8
1
10
6157.2678
20
1902.3394
0
VERTEX
8
1
10
6064.3784
20
1902.3334
0
VERTEX
8
1
10
5968.9925
20
1902.3220
0
VERTEX
8
1
10
5871.1821
20
1902.3076
0
VERTEX
8
1
10
5771.0493
20
1902.2861
0
VERTEX
8
1
10
5668.6522
20
1902.2686
0
VERTEX
8
1
10
5564.0734
20
1902.2400
0
VERTEX
8
1
10
5457.3825
20
1902.2145
0
VERTEX
8
1
10
5348.6251
20
1902.1818
0
VERTEX
8
1
10
5237.8630
20
1902.1550
0
VERTEX
8
1
10
5125.1521
20
1902.1163
0
VERTEX
8
1
10
5010.5247
20
1902.0843
0
VERTEX
8
1
10
4894.0379
20
1902.0414
0
VERTEX
8
1
10
4775.7259
20
1901.9956
0
VERTEX
8
1
10
4655.6311
20
1901.9583
0
VERTEX
8
1
10
4533.7899
20
1901.9183
0
VERTEX
8
1
10
4410.2382
20
1901.8720
0
VERTEX
8
1
10
4284.9881
20
1901.8272
0
VERTEX
8
1
10
4158.0846
20
1901.7804
0
VERTEX
8
1
10
4029.5489
20
1901.7420
0
VERTEX
8
1
10
3899.4045
20
1901.6996
0
VERTEX
8
1
10
3767.6672
20
1901.6527
0
VERTEX
8
1
10
3634.3816
20
1901.6149
0
VERTEX
8
1
10
3499.5458
20
1901.5695
0
VERTEX
8
1
10
3363.2040
20
1901.5248
0
VERTEX
8
1
10
3225.3505
20
1901.4871
0
VERTEX
8
1
10
3086.0299
20
1901.4547
0
VERTEX
8
1
10
2945.2384
20
1901.4119
0
VERTEX
8
1
10
2802.9973
20
1901.3763
0
VERTEX
8
1
10
2659.3197
20
1901.3418
0
VERTEX
8
1
10
2514.2172
20
1901.3151
0
VERTEX
8
1
10
2367.7018
20
1901.2897
0
VERTEX
8
1
10
2219.7755
20
1901.2613
0
VERTEX
8
1
10
2070.4657
20
1901.2460
0
VERTEX
8
1
10
1919.7515
20
1901.2322
0
VERTEX
8
1
10
1767.6606
20
1901.2281
0
VERTEX
8
1
10
1614.1703
20
1901.2224
0
VERTEX
8
1
10
1459.2999
20
1901.2371
0
VERTEX
8
1
10
1303.0445
20
1901.2531
0
VERTEX
8
1
10
1145.3800
20
1901.2747
0
VERTEX
8
1
10
986.3120
20
1901.3140
0
VERTEX
8
1
10
825.8031
20
1901.3775
0
VERTEX
8
1
10
663.8485
20
1901.4506
0
VERTEX
8
1
10
500.3845
20
1901.5576
0
VERTEX
8
1
10
335.3473
20
1901.6809
0
VERTEX
8
1
10
168.6256
20
1901.8578
0
VERTEX
8
1
10
-0.0060
20
1902.0788
0
VERTEX
8
1
10
7.0797
20
1945.9295
0
VERTEX
8
1
10
16.3011
20
2003.1236
0
VERTEX
8
1
10
23.6912
20
2048.8443
0
VERTEX
8
1
10
31.7736
20
2098.7913
0
VERTEX
8
1
10
39.7548
20
2148.0174
0
VERTEX
8
1
10
47.6998
20
2196.9962
0
VERTEX
8
1
10
55.7078
20
2246.2462
0
VERTEX
8
1
10
63.7058
20
2295.4242
0
VERTEX
8
1
10
71.7178
20
2344.5738
0
VERTEX
8
1
10
79.7482
20
2393.7361
0
VERTEX
8
1
10
87.7786
20
2442.8984
0
VERTEX
8
1
10
95.8217
20
2492.0422
0
VERTEX
8
1
10
103.8835
20
2541.2695
0
VERTEX
8
1
10
111.9148
20
2590.2805
0
VERTEX
8
1
10
119.9809
20
2639.5487
0
VERTEX
8
1
10
128.1661
20
2689.3384
0
VERTEX
8
1
10
135.6665
20
2735.0644
0
VERTEX
8
1
10
145.2454
20
2793.4595
0
VERTEX
8
1
10
152.2392
20
2836.2640
0
VERTEX
8
1
10
156.2807
20
2860.9988
0
VERTEX
8
1
10
316.1533
20
2846.3848
0
VERTEX
8
1
10
475.7695
20
2831.7283
0
VERTEX
8
1
10
633.6658
20
2817.1790
0
VERTEX
8
1
10
789.9685
20
2802.7359
0
VERTEX
8
1
10
944.7778
20
2788.4131
0
VERTEX
8
1
10
1098.1581
20
2774.1930
0
VERTEX
8
1
10
1250.1406
20
2760.0729
0
VERTEX
8
1
10
1400.7640
20
2746.0575
0
VERTEX
8
1
10
1550.0266
20
2732.1620
0
VERTEX
8
1
10
1697.9609
20
2718.3740
0
VERTEX
8
1
10
1844.5678
20
2704.6996
0
VERTEX
8
1
10
1989.8430
20
2691.1482
0
VERTEX
8
1
10
2133.8000
20
2677.7003
0
VERTEX
8
1
10
2276.4343
20
2664.3801
0
VERTEX
8
1
10
2417.7461
20
2651.1752
0
VERTEX
8
1
10
2557.7250
20
2638.0813
0
VERTEX
8
1
10
2696.3642
20
2625.1204
0
VERTEX
8
1
10
2833.6515
20
2612.2748
0
VERTEX
8
1
10
2969.5789
20
2599.5538
0
VERTEX
8
1
10
3104.1333
20
2586.9625
0
VERTEX
8
1
10
3237.3004
20
2574.5056
0
VERTEX
8
1
10
3369.0718
20
2562.1666
0
VERTEX
8
1
10
3499.4116
20
2549.9715
0
VERTEX
8
1
10
3628.3244
20
2537.9023
0
VERTEX
8
1
10
3755.7704
20
2525.9622
0
VERTEX
8
1
10
3881.7381
20
2514.1667
0
VERTEX
8
1
10
4006.2045
20
2502.5150
0
VERTEX
8
1
10
4129.1427
20
2490.9999
0
VERTEX
8
1
10
4250.5493
20
2479.6267
0
VERTEX
8
1
10
4370.3882
20
2468.4023
0
VERTEX
8
1
10
4488.6306
20
2457.3179
0
VERTEX
8
1
10
4605.2534
20
2446.3902
0
VERTEX
8
1
10
4720.2135
20
2435.6211
0
VERTEX
8
1
10
4833.5006
20
2425.0027
0
VERTEX
8
1
10
4945.0519
20
2414.5463
0
VERTEX
8
1
10
5054.8411
20
2404.2636
0
VERTEX
8
1
10
5162.8191
20
2394.1429
0
VERTEX
8
1
10
5268.9510
20
2384.2066
0
VERTEX
8
1
10
5373.1824
20
2374.4413
0
VERTEX
8
1
10
5475.4499
20
2364.8658
0
VERTEX
8
1
10
5575.7221
20
2355.4812
0
VERTEX
8
1
10
5673.9177
20
2346.2920
0
VERTEX
8
1
10
5769.9721
20
2337.3064
0
VERTEX
8
1
10
5863.8211
20
2328.5215
0
VERTEX
8
1
10
5955.3722
20
2319.9644
0
VERTEX
8
1
10
6044.5510
20
2311.6312
0
VERTEX
8
1
10
6131.2640
20
2303.5184
0
VERTEX
8
1
10
6215.3757
20
2295.6609
0
VERTEX
8
1
10
6296.7899
20
2288.0672
0
VERTEX
8
1
10
6375.3560
20
2280.7297
0
VERTEX
8
1
10
6450.9013
20
2273.6764
0
VERTEX
8
1
10
6523.2351
20
2266.9334
0
VERTEX
8
1
10
6592.1077
20
2260.5115
0
VERTEX
8
1
10
6657.2187
20
2254.4445
0
VERTEX
8
1
10
6718.1075
20
2248.7789
0
VERTEX
8
1
10
6774.1608
20
2243.5713
0
VERTEX
8
1
10
6824.2683
20
2238.9224
0
VERTEX
8
1
10
6866.2183
20
2235.0234
0
VERTEX
8
1
10
6877.5180
20
2233.9760
0
VERTEX
8
1
10
6890.2961
20
2207.6844
0
VERTEX
8
1
10
6893.4965
20
2201.0993
0
VERTEX
8
1
10
6901.3177
20
2184.6937
0
VERTEX
8
1
10
6911.4337
20
2163.4752
0
VERTEX
8
1
10
6921.4588
20
2142.4376
0
VERTEX
8
1
10
6929.9419
20
2124.6274
0
VERTEX
8
1
10
6937.3430
20
2109.0900
0
VERTEX
8
1
10
6944.3338
20
2094.4221
0
VERTEX
8
1
10
6951.5619
20
2079.2577
0
VERTEX
8
1
10
6959.2534
20
2063.1091
0
VERTEX
8
1
10
6967.1134
20
2046.6273
0
VERTEX
8
1
10
6974.7905
20
2030.5173
0
VERTEX
8
1
10
6982.0042
20
2015.3915
0
VERTEX
8
1
10
6989.0072
20
2000.7049
0
VERTEX
8
1
10
6996.4471
20
1985.0914
0
VERTEX
8
1
10
7004.9956
20
1967.1477
0
VERTEX
8
1
10
7015.0705
20
1946.0252
0
VERTEX
8
1
10
7025.1489
20
1924.8729
0
VERTEX
8
1
10
7032.9058
20
1908.5908
0
VERTEX
8
1
10
7036.0165
20
1902.0788
0
SEQEND
0
POLYLINE
8
8
62
8
66
1
6
CONTINUOUS
0
VERTEX
8
8
10
152.2392
20
2836.2640
0
VERTEX
8
8
10
313.8775
20
2821.4886
0
VERTEX
8
8
10
473.4835
20
2806.8330
0
VERTEX
8
8
10
631.3719
20
2792.2845
0
VERTEX
8
8
10
787.6682
20
2777.8420
0
VERTEX
8
8
10
942.4746
20
2763.5194
0
VERTEX
8
8
10
1095.8503
20
2749.2998
0
VERTEX
8
8
10
1247.8279
20
2735.1801
0
VERTEX
8
8
10
1398.4478
20
2721.1650
0
VERTEX
8
8
10
1547.7093
20
2707.2697
0
VERTEX
8
8
10
1695.6409
20
2693.4819
0
VERTEX
8
8
10
1842.2461
20
2679.8077
0
VERTEX
8
8
10
1987.5210
20
2666.2562
0
VERTEX
8
8
10
2131.4748
20
2652.8087
0
VERTEX
8
8
10
2274.1098
20
2639.4884
0
VERTEX
8
8
10
2415.4201
20
2626.2837
0
VERTEX
8
8
10
2555.3966
20
2613.1899
0
VERTEX
8
8
10
2694.0372
20
2600.2290
0
VERTEX
8
8
10
2831.3225
20
2587.3835
0
VERTEX
8
8
10
2967.2494
20
2574.6626
0
VERTEX
8
8
10
3101.8040
20
2562.0713
0
VERTEX
8
8
10
3234.9719
20
2549.6143
0
VERTEX
8
8
10
3366.7410
20
2537.2755
0
VERTEX
8
8
10
3497.0827
20
2525.0802
0
VERTEX
8
8
10
3625.9940
20
2513.0112
0
VERTEX
8
8
10
3753.4384
20
2501.0712
0
VERTEX
8
8
10
3879.4073
20
2489.2756
0
VERTEX
8
8
10
4003.8743
20
2477.6238
0
VERTEX
8
8
10
4126.8113
20
2466.1089
0
VERTEX
8
8
10
4248.2175
20
2454.7357
0
VERTEX
8
8
10
4368.0568
20
2443.5113
0
VERTEX
8
8
10
4486.2972
20
2432.4270
0
VERTEX
8
8
10
4602.9211
20
2421.4993
0
VERTEX
8
8
10
4717.8818
20
2410.7301
0
VERTEX
8
8
10
4831.1675
20
2400.1118
0
VERTEX
8
8
10
4942.7188
20
2389.6554
0
VERTEX
8
8
10
5052.5098
20
2379.3725
0
VERTEX
8
8
10
5160.4860
20
2369.2520
0
VERTEX
8
8
10
5266.6207
20
2359.3155
0
VERTEX
8
8
10
5370.8504
20
2349.5503
0
VERTEX
8
8
10
5473.1193
20
2339.9746
0
VERTEX
8
8
10
5573.3925
20
2330.5900
0
VERTEX
8
8
10
5671.5883
20
2321.4007
0
VERTEX
8
8
10
5767.6436
20
2312.4151
0
VERTEX
8
8
10
5861.4911
20
2303.6303
0
VERTEX
8
8
10
5953.0457
20
2295.0729
0
VERTEX
8
8
10
6042.2250
20
2286.7397
0
VERTEX
8
8
10
6128.9352
20
2278.6271
0
VERTEX
8
8
10
6213.0504
20
2270.7693
0
VERTEX
8
8
10
6294.4682
20
2263.1753
0
VERTEX
8
8
10
6373.0313
20
2255.8381
0
VERTEX
8
8
10
6448.5773
20
2248.7846
0
VERTEX
8
8
10
6520.9147
20
2242.0414
0
VERTEX
8
8
10
6589.7867
20
2235.6194
0
VERTEX
8
8
10
6654.8992
20
2229.5523
0
VERTEX
8
8
10
6715.7913
20
2223.8864
0
VERTEX
8
8
10
6771.8482
20
2218.6785
0
VERTEX
8
8
10
6821.9588
20
2214.0293
0
VERTEX
8
8
10
6863.9047
20
2210.1307
0
VERTEX
8
8
10
6890.2961
20
2207.6844
0
SEQEND
0
TEXT
8
19
62
3
10
24.9953
20
1903.0461
40
12.0000
50
-0.0751
1
2
0
POLYLINE
8
8
62
8
66
1
6
CONTINUOUS
0
VERTEX
8
8
10
6893.9728
20
2137.8457
0
VERTEX
8
8
10
6893.9635
20
2127.8457
0
SEQEND
0
POLYLINE
8
8
62
8
66
1
6
CONTINUOUS
0
VERTEX
8
8
10
6898.9681
20
2132.8411
0
VERTEX
8
8
10
6888.9681
20
2132.8503
0
SEQEND
0
ENDBLK
0
BLOCK
2
Panel3
10
0
20
0
30
0
70
0
0
POLYLINE
8
1
62
1
66
1
6
CONTINUOUS
70
1
0
VERTEX
8
1
10
6767.2942
20
2902.6920
0
VERTEX
8
1
10
6740.7897
20
2902.7245
0
VERTEX
8
1
10
6698.6630
20
2902.7569
0
VERTEX
8
1
10
6648.3372
20
2902.7480
0
VERTEX
8
1
10
6592.0389
20
2902.7136
0
VERTEX
8
1
10
6530.8839
20
2902.6604
0
VERTEX
8
1
10
6465.4893
20
2902.5936
0
VERTEX
8
1
10
6396.3185
20
2902.5130
0
VERTEX
8
1
10
6323.6676
20
2902.4159
0
VERTEX
8
1
10
6247.7931
20
2902.3161
0
VERTEX
8
1
10
6168.8882
20
2902.2067
0
VERTEX
8
1
10
6087.1171
20
2902.0772
0
VERTEX
8
1
10
6002.6358
20
2901.9498
0
VERTEX
8
1
10
5915.5471
20
2901.8259
0
VERTEX
8
1
10
5825.9793
20
2901.6838
0
VERTEX
8
1
10
5734.0258
20
2901.5362
0
VERTEX
8
1
10
5639.7682
20
2901.3946
0
VERTEX
8
1
10
5543.2936
20
2901.2406
0
VERTEX
8
1
10
5444.6689
20
2901.0838
0
VERTEX
8
1
10
5343.9576
20
2900.9230
0
VERTEX
8
1
10
5241.2415
20
2900.7614
0
VERTEX
8
1
10
5136.5555
20
2900.6017
0
VERTEX
8
1
10
5029.9569
20
2900.4321
0
VERTEX
8
1
10
4921.5075
20
2900.2715
0
VERTEX
8
1
10
4811.2361
20
2900.1019
0
VERTEX
8
1
10
4699.1960
20
2899.9404
0
VERTEX
8
1
10
4585.4138
20
2899.7791
0
VERTEX
8
1
10
4469.9499
20
2899.6144
0
VERTEX
8
1
10
4352.8153
20
2899.4561
0
VERTEX
8
1
10
4234.0566
20
2899.3079
0
VERTEX
8
1
10
4113.6929
20
2899.1571
0
VERTEX
8
1
10
3991.7552
20
2899.0174
0
VERTEX
8
1
10
3868.2802
20
2898.8874
0
VERTEX
8
1
10
3743.2691
20
2898.7629
0
VERTEX
8
1
10
3616.7492
20
2898.6482
0
VERTEX
8
1
10
3488.7467
20
2898.5476
0
VERTEX
8
1
10
3359.2716
20
2898.4475
0
VERTEX
8
1
10
3228.3607
20
2898.3503
0
VERTEX
8
1
10
3096.0153
20
2898.2753
0
VERTEX
8
1
10
2962.2660
20
2898.2016
0
VERTEX
8
1
10
2827.1235
20
2898.1484
0
VERTEX
8
1
10
2690.6027
20
2898.1139
0
VERTEX
8
1
10
2552.7178
20
2898.0971
0
VERTEX
8
1
10
2413.4726
20
2898.0915
0
VERTEX
8
1
10
2272.8850
20
2898.1185
0
VERTEX
8
1
10
2130.9591
20
2898.1597
0
VERTEX
8
1
10
1987.7035
20
2898.2233
0
VERTEX
8
1
10
1843.1230
20
2898.3250
0
VERTEX
8
1
10
1697.2175
20
2898.4449
0
VERTEX
8
1
10
1549.9760
20
2898.6044
0
VERTEX
8
1
10
1401.4034
20
2898.7995
0
VERTEX
8
1
10
1251.4967
20
2899.0281
0
VERTEX
8
1
10
1100.2264
20
2899.3056
0
VERTEX
8
1
10
947.5946
20
2899.6228
0
VERTEX
8
1
10
793.5617
20
2899.9782
0
VERTEX
8
1
10
638.0946
20
2900.3805
0
VERTEX
8
1
10
481.1331
20
2900.8521
0
VERTEX
8
1
10
322.5768
20
2901.3846
0
VERTEX
8
1
10
162.3005
20
2901.9902
0
VERTEX
8
1
10
-0.0102
20
2902.6920
0
VERTEX
8
1
10
4.5192
20
2970.4425
0
VERTEX
8
1
10
8.9409
20
3036.9232
0
VERTEX
8
1
10
13.4421
20
3104.5334
0
VERTEX
8
1
10
17.8947
20
3171.6589
0
VERTEX
8
1
10
22.3347
20
3238.9665
0
VERTEX
8
1
10
26.7594
20
3306.2088
0
VERTEX
8
1
10
31.1576
20
3373.4756
0
VERTEX
8
1
10
35.5244
20
3440.7451
0
VERTEX
8
1
10
39.8717
20
3508.0100
0
VERTEX
8
1
10
44.1903
20
3575.3092
0
VERTEX
8
1
10
48.4539
20
3642.4512
0
VERTEX
8
1
10
52.6804
20
3709.5330
0
VERTEX
8
1
10
56.9383
20
3777.7739
0
VERTEX
8
1
10
61.1263
20
3845.5764
0
VERTEX
8
1
10
65.0197
20
3908.8051
0
VERTEX
8
1
10
69.0340
20
3975.0548
0
VERTEX
8
1
10
74.0908
20
4059.6497
0
VERTEX
8
1
10
79.0357
20
4143.0355
0
VERTEX
8
1
10
81.2442
20
4181.0239
0
VERTEX
8
1
10
82.6987
20
4206.0436
0
VERTEX
8
1
10
221.5700
20
4207.7486
0
VERTEX
8
1
10
360.3607
20
4209.3732
0
VERTEX
8
1
10
497.5821
20
4210.9128
0
VERTEX
8
1
10
633.3765
20
4212.3842
0
VERTEX
8
1
10
767.8415
20
4213.7950
0
VERTEX
8
1
10
901.0401
20
4215.1413
0
VERTEX
8
1
10
1032.9935
20
4216.4366
0
VERTEX
8
1
10
1163.7376
20
4217.6766
0
VERTEX
8
1
10
1293.2892
20
4218.8734
0
VERTEX
8
1
10
1421.6720
20
4220.0169
0
VERTEX
8
1
10
1548.8980
20
4221.1057
0
VERTEX
8
1
10
1674.9741
20
4222.1482
0
VERTEX
8
1
10
1799.8842
20
4223.1572
0
VERTEX
8
1
10
1923.6654
20
4224.1152
0
VERTEX
8
1
10
2046.2930
20
4225.0332
0
VERTEX
8
1
10
2167.7695
20
4225.9182
0
VERTEX
8
1
10
2288.0908
20
4226.7643
0
VERTEX
8
1
10
2407.2540
20
4227.5769
0
VERTEX
8
1
10
2525.2613
20
4228.3537
0
VERTEX
8
1
10
2642.0868
20
4229.1028
0
VERTEX
8
1
10
2757.7360
20
4229.8125
0
VERTEX
8
1
10
2872.1930
20
4230.5066
0
VERTEX
8
1
10
2985.4386
20
4231.1643
0
VERTEX
8
1
10
3097.4568
20
4231.8011
0
VERTEX
8
1
10
3208.2492
20
4232.4118
0
VERTEX
8
1
10
3317.7794
20
4232.9948
0
VERTEX
8
1
10
3426.0462
20
4233.5648
0
VERTEX
8
1
10
3533.0313
20
4234.1162
0
VERTEX
8
1
10
3638.7503
20
4234.6289
0
VERTEX
8
1
10
3743.1642
20
4235.1287
0
VERTEX
8
1
10
3846.2706
20
4235.6035
0
VERTEX
8
1
10
3948.0231
20
4236.0526
0
VERTEX
8
1
10
4048.4073
20
4236.4939
0
VERTEX
8
1
10
4147.4005
20
4236.9088
0
VERTEX
8
1
10
4244.9547
20
4237.3161
0
VERTEX
8
1
10
4341.0463
20
4237.7175
0
VERTEX
8
1
10
4435.6367
20
4238.1004
0
VERTEX
8
1
10
4528.6985
20
4238.4658
0
VERTEX
8
1
10
4620.1675
20
4238.8278
0
VERTEX
8
1
10
4710.0231
20
4239.1764
0
VERTEX
8
1
10
4798.2008
20
4239.5147
0
VERTEX
8
1
10
4884.6629
20
4239.8518
0
VERTEX
8
1
10
4969.3452
20
4240.1679
0
VERTEX
8
1
10
5052.1836
20
4240.4899
0
VERTEX
8
1
10
5133.1326
20
4240.7918
0
VERTEX
8
1
10
5212.1021
20
4241.0852
0
VERTEX
8
1
10
5289.0164
20
4241.3733
0
VERTEX
8
1
10
5363.8047
20
4241.6517
0
VERTEX
8
1
10
5436.3545
20
4241.9189
0
VERTEX
8
1
10
5506.5766
20
4242.1720
0
VERTEX
8
1
10
5574.3212
20
4242.4191
0
VERTEX
8
1
10
5639.4667
20
4242.6590
0
VERTEX
8
1
10
5701.8241
20
4242.8911
0
VERTEX
8
1
10
5761.1731
20
4243.1103
0
VERTEX
8
1
10
5817.2369
20
4243.3309
0
VERTEX
8
1
10
5869.5504
20
4243.5388
0
VERTEX
8
1
10
5917.2892
20
4243.7485
0
VERTEX
8
1
10
5958.5800
20
4243.9440
0
VERTEX
8
1
10
5971.0509
20
4244.0040
0
VERTEX
8
1
10
5985.8087
20
4219.0748
0
VERTEX
8
1
10
6028.3016
20
4147.2949
0
VERTEX
8
1
10
6067.6949
20
4080.6418
0
VERTEX
8
1
10
6108.8746
20
4010.9998
0
VERTEX
8
1
10
6149.9246
20
3941.6373
0
VERTEX
8
1
10
6190.9525
20
3872.3316
0
VERTEX
8
1
10
6232.0257
20
3803.0046
0
VERTEX
8
1
10
6273.1067
20
3733.6895
0
VERTEX
8
1
10
6314.2052
20
3664.3883
0
VERTEX
8
1
10
6355.3212
20
3595.1009
0
VERTEX
8
1
10
6396.4548
20
3525.8274
0
VERTEX
8
1
10
6437.6080
20
3456.5580
0
VERTEX
8
1
10
6478.7807
20
3387.2927
0
VERTEX
8
1
10
6519.9690
20
3318.0510
0
VERTEX
8
1
10
6561.1573
20
3248.8092
0
VERTEX
8
1
10
6602.3810
20
3179.5442
0
VERTEX
8
1
10
6643.4874
20
3110.4998
0
VERTEX
8
1
10
6685.2413
20
3040.4054
0
VERTEX
8
1
10
6724.8272
20
2973.9557
0
VERTEX
8
1
10
6767.2942
20
2902.6920
0
SEQEND
0
POLYLINE
8
8
62
8
66
1
6
CONTINUOUS
0
VERTEX
8
8
10
81.2442
20
4181.0239
0
VERTEX
8
8
10
221.8769
20
4182.7505
0
VERTEX
8
8
10
360.6533
20
4184.3749
0
VERTEX
8
8
10
497.8625
20
4185.9143
0
VERTEX
8
8
10
633.6473
20
4187.3856
0
VERTEX
8
8
10
768.1038
20
4188.7963
0
VERTEX
8
8
10
901.2928
20
4190.1426
0
VERTEX
8
8
10
1033.2389
20
4191.4379
0
VERTEX
8
8
10
1163.9746
20
4192.6777
0
VERTEX
8
8
10
1293.5202
20
4193.8745
0
VERTEX
8
8
10
1421.8947
20
4195.0179
0
VERTEX
8
8
10
1549.1119
20
4196.1066
0
VERTEX
8
8
10
1675.1808
20
4197.1490
0
VERTEX
8
8
10
1800.0861
20
4198.1580
0
VERTEX
8
8
10
1923.8589
20
4199.1160
0
VERTEX
8
8
10
2046.4801
20
4200.0339
0
VERTEX
8
8
10
2167.9517
20
4200.9188
0
VERTEX
8
8
10
2288.2666
20
4201.7649
0
VERTEX
8
8
10
2407.4245
20
4202.5775
0
VERTEX
8
8
10
2525.4259
20
4203.3542
0
VERTEX
8
8
10
2642.2471
20
4204.1034
0
VERTEX
8
8
10
2757.8894
20
4204.8130
0
VERTEX
8
8
10
2872.3446
20
4205.5070
0
VERTEX
8
8
10
2985.5838
20
4206.1647
0
VERTEX
8
8
10
3097.5989
20
4206.8015
0
VERTEX
8
8
10
3208.3870
20
4207.4122
0
VERTEX
8
8
10
3317.9124
20
4207.9951
0
VERTEX
8
8
10
3426.1778
20
4208.5652
0
VERTEX
8
8
10
3533.1601
20
4209.1165
0
VERTEX
8
8
10
3638.8715
20
4209.6292
0
VERTEX
8
8
10
3743.2838
20
4210.1289
0
VERTEX
8
8
10
3846.3857
20
4210.6037
0
VERTEX
8
8
10
3948.1334
20
4211.0528
0
VERTEX
8
8
10
4048.5172
20
4211.4942
0
VERTEX
8
8
10
4147.5052
20
4211.9090
0
VERTEX
8
8
10
4245.0591
20
4212.3163
0
VERTEX
8
8
10
4341.1507
20
4212.7177
0
VERTEX
8
8
10
4435.7379
20
4213.1006
0
VERTEX
8
8
10
4528.7967
20
4213.4660
0
VERTEX
8
8
10
4620.2665
20
4213.8280
0
VERTEX
8
8
10
4710.1200
20
4214.1766
0
VERTEX
8
8
10
4798.2967
20
4214.5149
0
VERTEX
8
8
10
4884.7604
20
4214.8520
0
VERTEX
8
8
10
4969.4385
20
4215.1681
0
VERTEX
8
8
10
5052.2808
20
4215.4901
0
VERTEX
8
8
10
5133.2258
20
4215.7920
0
VERTEX
8
8
10
5212.1950
20
4216.0854
0
VERTEX
8
8
10
5289.1100
20
4216.3735
0
VERTEX
8
8
10
5363.8978
20
4216.6519
0
VERTEX
8
8
10
5436.4466
20
4216.9191
0
VERTEX
8
8
10
5506.6667
20
4217.1721
0
VERTEX
8
8
10
5574.4124
20
4217.4192
0
VERTEX
8
8
10
5639.5588
20
4217.6591
0
VERTEX
8
8
10
5701.9172
20
4217.8913
0
VERTEX
8
8
10
5761.2655
20
4218.1105
0
VERTEX
8
8
10
5817.3353
20
4218.3311
0
VERTEX
8
8
10
5869.6497
20
4218.5390
0
VERTEX
8
8
10
5917.3990
20
4218.7487
0
VERTEX
8
8
10
5958.6984
20
4218.9443
0
VERTEX
8
8
10
5985.8087
20
4219.0748
0
SEQEND
0
TEXT
8
19
62
3
10
24.9939
20
2903.5839
40
12.0000
50
-0.2477
1
3
0
POLYLINE
8
8
62
8
66
1
6
CONTINUOUS
0
VERTEX
8
8
10
6314.9202
20
3605.7053
0
VERTEX
8
8
10
6314.9080
20
3595.7053
0
SEQEND
0
POLYLINE
8
8
62
8
66
1
6
CONTINUOUS
0
VERTEX
8
8
10
6319.9141
20
3600.6991
0
VERTEX
8
8
10
6309.9141
20
3600.7114
0
SEQEND
0
ENDBLK
0
BLOCK
2
Panel4
10
0
20
0
30
0
70
0
0
POLYLINE
8
1
62
1
66
1
6
CONTINUOUS
70
1
0
VERTEX
8
1
10
5904.5484
20
4282.8438
0
VERTEX
8
1
10
5876.7933
20
4282.7178
0
VERTEX
8
1
10
5834.5803
20
4282.4951
0
VERTEX
8
1
10
5785.7757
20
4282.2435
0
VERTEX
8
1
10
5732.3131
20
4281.9582
0
VERTEX
8
1
10
5675.0132
20
4281.6670
0
VERTEX
8
1
10
5614.3354
20
4281.3789
0
VERTEX
8
1
10
5550.5713
20
4281.0741
0
VERTEX
8
1
10
5483.9597
20
4280.7649
0
VERTEX
8
1
10
5414.6571
20
4280.4535
0
VERTEX
8
1
10
5342.8399
20
4280.1345
0
VERTEX
8
1
10
5268.6093
20
4279.8182
0
VERTEX
8
1
10
5192.0984
20
4279.4890
0
VERTEX
8
1
10
5113.4016
20
4279.1638
0
VERTEX
8
1
10
5032.5888
20
4278.8352
0
VERTEX
8
1
10
4949.7671
20
4278.4978
0
VERTEX
8
1
10
4864.9865
20
4278.1648
0
VERTEX
8
1
10
4778.3315
20
4277.8368
0
VERTEX
8
1
10
4689.8451
20
4277.4968
0
VERTEX
8
1
10
4599.6023
20
4277.1760
0
VERTEX
8
1
10
4507.6402
20
4276.8469
0
VERTEX
8
1
10
4414.0199
20
4276.5280
0
VERTEX
8
1
10
4318.7747
20
4276.2119
0
VERTEX
8
1
10
4221.9604
20
4275.9069
0
VERTEX
8
1
10
4123.6003
20
4275.6141
0
VERTEX
8
1
10
4023.7415
20
4275.3390
0
VERTEX
8
1
10
3922.4224
20
4275.0661
0
VERTEX
8
1
10
3819.6664
20
4274.8158
0
VERTEX
8
1
10
3715.5096
20
4274.5820
0
VERTEX
8
1
10
3609.9756
20
4274.3754
0
VERTEX
8
1
10
3503.0794
20
4274.1939
0
VERTEX
8
1
10
3394.8663
20
4274.0418
0
VERTEX
8
1
10
3285.3351
20
4273.9247
0
VERTEX
8
1
10
3174.4843
20
4273.8322
0
VERTEX
8
1
10
3062.3213
20
4273.7641
0
VERTEX
8
1
10
2948.8708
20
4273.7243
0
VERTEX
8
1
10
2834.1608
20
4273.7051
0
VERTEX
8
1
10
2718.1843
20
4273.7121
0
VERTEX
8
1
10
2600.9750
20
4273.7497
0
VERTEX
8
1
10
2482.5367
20
4273.8144
0
VERTEX
8
1
10
2362.8894
20
4273.9192
0
VERTEX
8
1
10
2242.0278
20
4274.0487
0
VERTEX
8
1
10
2119.9583
20
4274.2216
0
VERTEX
8
1
10
1996.7055
20
4274.4204
0
VERTEX
8
1
10
1872.2638
20
4274.6607
0
VERTEX
8
1
10
1746.6312
20
4274.9383
0
VERTEX
8
1
10
1619.8020
20
4275.2595
0
VERTEX
8
1
10
1491.8031
20
4275.6180
0
VERTEX
8
1
10
1362.5936
20
4276.0214
0
VERTEX
8
1
10
1232.1929
20
4276.4704
0
VERTEX
8
1
10
1100.5802
20
4276.9587
0
VERTEX
8
1
10
967.7439
20
4277.5008
0
VERTEX
8
1
10
833.6557
20
4278.0770
0
VERTEX
8
1
10
698.3020
20
4278.7126
0
VERTEX
8
1
10
561.6190
20
4279.4096
0
VERTEX
8
1
10
423.5627
20
4280.1551
0
VERTEX
8
1
10
284.0514
20
4280.9677
0
VERTEX
8
1
10
142.9290
20
4281.8595
0
VERTEX
8
1
10
-0.1216
20
4282.8438
0
VERTEX
8
1
10
3.0473
20
4329.8526
0
VERTEX
8
1
10
8.9534
20
4418.0155
0
VERTEX
8
1
10
13.6280
20
4488.7825
0
VERTEX
8
1
10
17.6189
20
4550.0974
0
VERTEX
8
1
10
21.9116
20
4616.4472
0
VERTEX
8
1
10
26.2895
20
4684.9300
0
VERTEX
8
1
10
30.5209
20
4751.9942
0
VERTEX
8
1
10
34.6752
20
4818.5893
0
VERTEX
8
1
10
38.8128
20
4885.5704
0
VERTEX
8
1
10
42.9035
20
4952.7562
0
VERTEX
8
1
10
46.9310
20
5019.8147
0
VERTEX
8
1
10
50.8830
20
5086.4865
0
VERTEX
8
1
10
54.7918
20
5153.3023
0
VERTEX
8
1
10
58.7348
20
5221.6238
0
VERTEX
8
1
10
62.5695
20
5289.1202
0
VERTEX
8
1
10
66.0422
20
5350.8600
0
VERTEX
8
1
10
69.7060
20
5417.1784
0
VERTEX
8
1
10
74.4098
20
5504.1420
0
VERTEX
8
1
10
77.1601
20
5555.9685
0
VERTEX
8
1
10
78.4879
20
5580.9902
0
VERTEX
8
1
10
197.9642
20
5582.7085
0
VERTEX
8
1
10
317.4693
20
5584.3714
0
VERTEX
8
1
10
435.5844
20
5585.9618
0
VERTEX
8
1
10
552.4470
20
5587.4833
0
VERTEX
8
1
10
668.1561
20
5588.9404
0
VERTEX
8
1
10
782.7470
20
5590.3549
0
VERTEX
8
1
10
896.2545
20
5591.7138
0
VERTEX
8
1
10
1008.7235
20
5593.0206
0
VERTEX
8
1
10
1120.1525
20
5594.2764
0
VERTEX
8
1
10
1230.5599
20
5595.4983
0
VERTEX
8
1
10
1339.9728
20
5596.6619
0
VERTEX
8
1
10
1448.3804
20
5597.8003
0
VERTEX
8
1
10
1555.8000
20
5598.8864
0
VERTEX
8
1
10
1662.2343
20
5599.9352
0
VERTEX
8
1
10
1767.6758
20
5600.9361
0
VERTEX
8
1
10
1872.1378
20
5601.9062
0
VERTEX
8
1
10
1975.5973
20
5602.8427
0
VERTEX
8
1
10
2078.0674
20
5603.7408
0
VERTEX
8
1
10
2179.5467
20
5604.6036
0
VERTEX
8
1
10
2280.0293
20
5605.4225
0
VERTEX
8
1
10
2379.4925
20
5606.2176
0
VERTEX
8
1
10
2477.9427
20
5606.9825
0
VERTEX
8
1
10
2575.3711
20
5607.7083
0
VERTEX
8
1
10
2671.7511
20
5608.4157
0
VERTEX
8
1
10
2767.0859
20
5609.0856
0
VERTEX
8
1
10
2861.3588
20
5609.7308
0
VERTEX
8
1
10
2954.5596
20
5610.3602
0
VERTEX
8
1
10
3046.7355
20
5610.9442
0
VERTEX
8
1
10
3137.8505
20
5611.4949
0
VERTEX
8
1
10
3227.9080
20
5612.0094
0
VERTEX
8
1
10
3316.8668
20
5612.4971
0
VERTEX
8
1
10
3404.7209
20
5612.9631
0
VERTEX
8
1
10
3491.4270
20
5613.4036
0
VERTEX
8
1
10
3576.9762
20
5613.8238
0
VERTEX
8
1
10
3661.3235
20
5614.2177
0
VERTEX
8
1
10
3744.4448
20
5614.5976
0
VERTEX
8
1
10
3826.2999
20
5614.9589
0
VERTEX
8
1
10
3906.8552
20
5615.3102
0
VERTEX
8
1
10
3986.0676
20
5615.6355
0
VERTEX
8
1
10
4063.9053
20
5615.9556
0
VERTEX
8
1
10
4140.3035
20
5616.2596
0
VERTEX
8
1
10
4215.2326
20
5616.5485
0
VERTEX
8
1
10
4288.6232
20
5616.8213
0
VERTEX
8
1
10
4360.4465
20
5617.0815
0
VERTEX
8
1
10
4430.6064
20
5617.3346
0
VERTEX
8
1
10
4499.0453
20
5617.5756
0
VERTEX
8
1
10
4565.7153
20
5617.7947
0
VERTEX
8
1
10
4630.5057
20
5618.0131
0
VERTEX
8
1
10
4693.3285
20
5618.2116
0
VERTEX
8
1
10
4754.0993
20
5618.3945
0
VERTEX
8
1
10
4812.6858
20
5618.5769
0
VERTEX
8
1
10
4868.9502
20
5618.7358
0
VERTEX
8
1
10
4922.7304
20
5618.8809
0
VERTEX
8
1
10
4973.8132
20
5619.0224
0
VERTEX
8
1
10
5021.8805
20
5619.1534
0
VERTEX
8
1
10
5066.4065
20
5619.2785
0
VERTEX
8
1
10
5105.9208
20
5619.3863
0
VERTEX
8
1
10
5118.4901
20
5619.4141
0
VERTEX
8
1
10
5133.1297
20
5594.4465
0
VERTEX
8
1
10
5175.2233
20
5522.6562
0
VERTEX
8
1
10
5216.7857
20
5451.6456
0
VERTEX
8
1
10
5253.5985
20
5388.7961
0
VERTEX
8
1
10
5294.7720
20
5318.5216
0
VERTEX
8
1
10
5335.8537
20
5248.4425
0
VERTEX
8
1
10
5376.0672
20
5179.8778
0
VERTEX
8
1
10
5416.5747
20
5110.8843
0
VERTEX
8
1
10
5457.2055
20
5041.6917
0
VERTEX
8
1
10
5497.7798
20
4972.6713
0
VERTEX
8
1
10
5538.3619
20
4903.6627
0
VERTEX
8
1
10
5578.9796
20
4834.6308
0
VERTEX
8
1
10
5619.6049
20
4765.6108
0
VERTEX
8
1
10
5660.2576
20
4696.6067
0
VERTEX
8
1
10
5700.9160
20
4627.6242
0
VERTEX
8
1
10
5741.6218
20
4558.6107
0
VERTEX
8
1
10
5782.2059
20
4489.8374
0
VERTEX
8
1
10
5823.4502
20
4420.0067
0
VERTEX
8
1
10
5862.5826
20
4353.7803
0
VERTEX
8
1
10
5904.5484
20
4282.8438
0
SEQEND
0
POLYLINE
8
8
62
8
66
1
6
CONTINUOUS
0
VERTEX
8
8
10
77.1601
20
5555.9685
0
VERTEX
8
8
10
198.3237
20
5557.7111
0
VERTEX
8
8
10
317.8171
20
5559.3738
0
VERTEX
8
8
10
435.9210
20
5560.9640
0
VERTEX
8
8
10
552.7724
20
5562.4854
0
VERTEX
8
8
10
668.4709
20
5563.9424
0
VERTEX
8
8
10
783.0556
20
5565.3568
0
VERTEX
8
8
10
896.5538
20
5566.7156
0
VERTEX
8
8
10
1009.0139
20
5568.0223
0
VERTEX
8
8
10
1120.4343
20
5569.2780
0
VERTEX
8
8
10
1230.8365
20
5570.4998
0
VERTEX
8
8
10
1340.2387
20
5571.6633
0
VERTEX
8
8
10
1448.6430
20
5572.8017
0
VERTEX
8
8
10
1556.0528
20
5573.8876
0
VERTEX
8
8
10
1662.4807
20
5574.9364
0
VERTEX
8
8
10
1767.9131
20
5575.9372
0
VERTEX
8
8
10
1872.3699
20
5576.9073
0
VERTEX
8
8
10
1975.8236
20
5577.8437
0
VERTEX
8
8
10
2078.2865
20
5578.7418
0
VERTEX
8
8
10
2179.7593
20
5579.6045
0
VERTEX
8
8
10
2280.2330
20
5580.4233
0
VERTEX
8
8
10
2379.6924
20
5581.2184
0
VERTEX
8
8
10
2478.1369
20
5581.9833
0
VERTEX
8
8
10
2575.5573
20
5582.7090
0
VERTEX
8
8
10
2671.9346
20
5583.4164
0
VERTEX
8
8
10
2767.2616
20
5584.0862
0
VERTEX
8
8
10
2861.5298
20
5584.7314
0
VERTEX
8
8
10
2954.7285
20
5585.3608
0
VERTEX
8
8
10
3046.8939
20
5585.9447
0
VERTEX
8
8
10
3138.0016
20
5586.4953
0
VERTEX
8
8
10
3228.0508
20
5587.0098
0
VERTEX
8
8
10
3317.0038
20
5587.4975
0
VERTEX
8
8
10
3404.8534
20
5587.9634
0
VERTEX
8
8
10
3491.5540
20
5588.4039
0
VERTEX
8
8
10
3577.0990
20
5588.8241
0
VERTEX
8
8
10
3661.4402
20
5589.2180
0
VERTEX
8
8
10
3744.5591
20
5589.5979
0
VERTEX
8
8
10
3826.4102
20
5589.9591
0
VERTEX
8
8
10
3906.9643
20
5590.3105
0
VERTEX
8
8
10
3986.1703
20
5590.6357
0
VERTEX
8
8
10
4064.0081
20
5590.9558
0
VERTEX
8
8
10
4140.4030
20
5591.2598
0
VERTEX
8
8
10
4215.3290
20
5591.5487
0
VERTEX
8
8
10
4288.7162
20
5591.8215
0
VERTEX
8
8
10
4360.5371
20
5592.0817
0
VERTEX
8
8
10
4430.6966
20
5592.3348
0
VERTEX
8
8
10
4499.1333
20
5592.5757
0
VERTEX
8
8
10
4565.7974
20
5592.7949
0
VERTEX
8
8
10
4630.5900
20
5593.0132
0
VERTEX
8
8
10
4693.4075
20
5593.2118
0
VERTEX
8
8
10
4754.1745
20
5593.3946
0
VERTEX
8
8
10
4812.7637
20
5593.5770
0
VERTEX
8
8
10
4869.0207
20
5593.7359
0
VERTEX
8
8
10
4922.7979
20
5593.8810
0
VERTEX
8
8
10
4973.8824
20
5594.0225
0
VERTEX
8
8
10
5021.9486
20
5594.1535
0
VERTEX
8
8
10
5066.4767
20
5594.2786
0
VERTEX
8
8
10
5105.9890
20
5594.3863
0
VERTEX
8
8
10
5133.1297
20
5594.4465
0
SEQEND
0
TEXT
8
19
62
3
10
24.8846
20
4283.6717
40
12.0000
50
-0.3942
1
4
0
POLYLINE
8
8
62
8
66
1
6
CONTINUOUS
0
VERTEX
8
8
10
5771.5709
20
4442.1464
0
VERTEX
8
8
10
5771.6163
20
4432.1465
0
SEQEND
0
POLYLINE
8
8
62
8
66
1
6
CONTINUOUS
0
VERTEX
8
8
10
5776.5935
20
4437.1691
0
VERTEX
8
8
10
5766.5936
20
4437.1237
0
SEQEND
0
POLYLINE
8
8
62
8
66
1
6
CONTINUOUS
0
VERTEX
8
8
10
5312.4375
20
5216.5394
0
VERTEX
8
8
10
5312.4829
20
5206.5395
0
SEQEND
0
POLYLINE
8
8
62
8
66
1
6
CONTINUOUS
0
VERTEX
8
8
10
5317.4602
20
5211.5622
0
VERTEX
8
8
10
5307.4603
20
5211.5168
0
SEQEND
0
ENDBLK
0
BLOCK
2
Panel5
10
0
20
0
30
0
70
0
0
POLYLINE
8
1
62
1
66
1
6
CONTINUOUS
70
1
0
VERTEX
8
1
10
5055.9957
20
5656.8585
0
VERTEX
8
1
10
5022.1073
20
5656.6851
0
VERTEX
8
1
10
4973.4474
20
5656.4328
0
VERTEX
8
1
10
4918.7282
20
5656.1743
0
VERTEX
8
1
10
4859.4913
20
5655.9082
0
VERTEX
8
1
10
4796.3751
20
5655.6293
0
VERTEX
8
1
10
4729.7563
20
5655.3543
0
VERTEX
8
1
10
4659.9087
20
5655.0732
0
VERTEX
8
1
10
4587.0453
20
5654.7953
0
VERTEX
8
1
10
4511.3685
20
5654.5091
0
VERTEX
8
1
10
4433.0337
20
5654.2199
0
VERTEX
8
1
10
4352.1600
20
5653.9336
0
VERTEX
8
1
10
4268.8903
20
5653.6441
0
VERTEX
8
1
10
4183.3283
20
5653.3621
0
VERTEX
8
1
10
4095.5841
20
5653.0700
0
VERTEX
8
1
10
4005.7315
20
5652.7945
0
VERTEX
8
1
10
3913.8649
20
5652.5083
0
VERTEX
8
1
10
3820.0522
20
5652.2305
0
VERTEX
8
1
10
3724.3750
20
5651.9628
0
VERTEX
8
1
10
3626.8844
20
5651.7112
0
VERTEX
8
1
10
3527.6515
20
5651.4564
0
VERTEX
8
1
10
3426.7257
20
5651.2251
0
VERTEX
8
1
10
3324.1676
20
5651.0064
0
VERTEX
8
1
10
3220.0085
20
5650.8029
0
VERTEX
8
1
10
3114.2957
20
5650.6212
0
VERTEX
8
1
10
3007.0844
20
5650.4595
0
VERTEX
8
1
10
2898.3830
20
5650.3253
0
VERTEX
8
1
10
2788.2266
20
5650.2326
0
VERTEX
8
1
10
2676.5786
20
5650.1648
0
VERTEX
8
1
10
2563.4435
20
5650.1151
0
VERTEX
8
1
10
2448.8393
20
5650.0951
0
VERTEX
8
1
10
2332.7953
20
5650.1083
0
VERTEX
8
1
10
2215.3139
20
5650.1326
0
VERTEX
8
1
10
2096.4252
20
5650.2026
0
VERTEX
8
1
10
1976.1292
20
5650.2960
0
VERTEX
8
1
10
1854.4405
20
5650.4133
0
VERTEX
8
1
10
1731.3669
20
5650.5758
0
VERTEX
8
1
10
1606.9005
20
5650.7798
0
VERTEX
8
1
10
1481.0545
20
5651.0064
0
VERTEX
8
1
10
1353.8296
20
5651.2862
0
VERTEX
8
1
10
1225.2055
20
5651.5938
0
VERTEX
8
1
10
1095.1760
20
5651.9587
0
VERTEX
8
1
10
963.7344
20
5652.3602
0
VERTEX
8
1
10
830.8566
20
5652.8149
0
VERTEX
8
1
10
696.5073
20
5653.3183
0
VERTEX
8
1
10
560.6429
20
5653.8858
0
VERTEX
8
1
10
423.1972
20
5654.5102
0
VERTEX
8
1
10
284.0824
20
5655.2045
0
VERTEX
8
1
10
143.1024
20
5655.9786
0
VERTEX
8
1
10
-0.1324
20
5656.8585
0
VERTEX
8
1
10
2.8614
20
5704.1202
0
VERTEX
8
1
10
8.4261
20
5792.5539
0
VERTEX
8
1
10
12.7989
20
5863.4003
0
VERTEX
8
1
10
16.5101
20
5924.9321
0
VERTEX
8
1
10
20.4926
20
5991.5586
0
VERTEX
8
1
10
24.5279
20
6060.2435
0
VERTEX
8
1
10
28.4132
20
6127.5039
0
VERTEX
8
1
10
32.2078
20
6194.3350
0
VERTEX
8
1
10
35.9605
20
6261.5460
0
VERTEX
8
1
10
39.6575
20
6328.9188
0
VERTEX
8
1
10
43.2518
20
6396.1055
0
VERTEX
8
1
10
46.7753
20
6462.9594
0
VERTEX
8
1
10
50.2695
20
6530.6053
0
VERTEX
8
1
10
53.7241
20
6599.1842
0
VERTEX
8
1
10
56.9618
20
6664.2973
0
VERTEX
8
1
10
60.0190
20
6726.9046
0
VERTEX
8
1
10
63.6659
20
6804.3682
0
VERTEX
8
1
10
67.6734
20
6891.5413
0
VERTEX
8
1
10
69.5850
20
6934.1744
0
VERTEX
8
1
10
70.7069
20
6959.1934
0
VERTEX
8
1
10
187.3733
20
6960.8911
0
VERTEX
8
1
10
303.6577
20
6962.5199
0
VERTEX
8
1
10
418.4157
20
6964.0593
0
VERTEX
8
1
10
531.8089
20
6965.5271
0
VERTEX
8
1
10
643.9103
20
6966.9280
0
VERTEX
8
1
10
754.7720
20
6968.2785
0
VERTEX
8
1
10
864.4413
20
6969.5742
0
VERTEX
8
1
10
972.9523
20
6970.8096
0
VERTEX
8
1
10
1080.3091
20
6972.0060
0
VERTEX
8
1
10
1186.5346
20
6973.1674
0
VERTEX
8
1
10
1291.6357
20
6974.2736
0
VERTEX
8
1
10
1395.6201
20
6975.3498
0
VERTEX
8
1
10
1498.4949
20
6976.3757
0
VERTEX
8
1
10
1600.2547
20
6977.3746
0
VERTEX
8
1
10
1700.9075
20
6978.3381
0
VERTEX
8
1
10
1800.4479
20
6979.2680
0
VERTEX
8
1
10
1898.8760
20
6980.1558
0
VERTEX
8
1
10
1996.1664
20
6981.0212
0
VERTEX
8
1
10
2092.3263
20
6981.8464
0
VERTEX
8
1
10
2187.3429
20
6982.6542
0
VERTEX
8
1
10
2281.1953
20
6983.4207
0
VERTEX
8
1
10
2373.8816
20
6984.1616
0
VERTEX
8
1
10
2465.4002
20
6984.8747
0
VERTEX
8
1
10
2555.8149
20
6985.5533
0
VERTEX
8
1
10
2645.0940
20
6986.2082
0
VERTEX
8
1
10
2733.2366
20
6986.8225
0
VERTEX
8
1
10
2820.1820
20
6987.4097
0
VERTEX
8
1
10
2905.8922
20
6987.9754
0
VERTEX
8
1
10
2990.3456
20
6988.5206
0
VERTEX
8
1
10
3073.4797
20
6989.0451
0
VERTEX
8
1
10
3155.2515
20
6989.5541
0
VERTEX
8
1
10
3235.6215
20
6990.0441
0
VERTEX
8
1
10
3314.5171
20
6990.5130
0
VERTEX
8
1
10
3391.8840
20
6990.9658
0
VERTEX
8
1
10
3467.6422
20
6991.3973
0
VERTEX
8
1
10
3541.7557
20
6991.8117
0
VERTEX
8
1
10
3614.0996
20
6992.2261
0
VERTEX
8
1
10
3684.6421
20
6992.6101
0
VERTEX
8
1
10
3753.2437
20
6992.9773
0
VERTEX
8
1
10
3819.8320
20
6993.3372
0
VERTEX
8
1
10
3884.2728
20
6993.6736
0
VERTEX
8
1
10
3946.4545
20
6994.0019
0
VERTEX
8
1
10
4006.2335
20
6994.3058
0
VERTEX
8
1
10
4063.4026
20
6994.5957
0
VERTEX
8
1
10
4117.7917
20
6994.8683
0
VERTEX
8
1
10
4169.1166
20
6995.1247
0
VERTEX
8
1
10
4216.9745
20
6995.3612
0
VERTEX
8
1
10
4260.3994
20
6995.5889
0
VERTEX
8
1
10
4277.7062
20
6995.6792
0
VERTEX
8
1
10
4292.1904
20
6970.7544
0
VERTEX
8
1
10
4318.9960
20
6924.6264
0
VERTEX
8
1
10
4371.4454
20
6834.0654
0
VERTEX
8
1
10
4415.0288
20
6758.8598
0
VERTEX
8
1
10
4452.2300
20
6694.6850
0
VERTEX
8
1
10
4492.3833
20
6625.4557
0
VERTEX
8
1
10
4533.1349
20
6555.2173
0
VERTEX
8
1
10
4573.1287
20
6486.3124
0
VERTEX
8
1
10
4613.2098
20
6417.2827
0
VERTEX
8
1
10
4653.4398
20
6348.0287
0
VERTEX
8
1
10
4693.6159
20
6278.8860
0
VERTEX
8
1
10
4733.8552
20
6209.6850
0
VERTEX
8
1
10
4774.0746
20
6140.5309
0
VERTEX
8
1
10
4814.0750
20
6071.7908
0
VERTEX
8
1
10
4854.5721
20
6002.2348
0
VERTEX
8
1
10
4895.6194
20
5931.8026
0
VERTEX
8
1
10
4933.6827
20
5866.4793
0
VERTEX
8
1
10
4972.9981
20
5799.0674
0
VERTEX
8
1
10
5025.0067
20
5709.9366
0
VERTEX
8
1
10
5055.9957
20
5656.8585
0
SEQEND
0
POLYLINE
8
8
62
8
66
1
6
CONTINUOUS
0
VERTEX
8
8
10
69.5850
20
6934.1744
0
VERTEX
8
8
10
187.7370
20
6935.8938
0
VERTEX
8
8
10
304.0078
20
6937.5224
0
VERTEX
8
8
10
418.7510
20
6939.0616
0
VERTEX
8
8
10
532.1325
20
6940.5292
0
VERTEX
8
8
10
644.2226
20
6941.9300
0
VERTEX
8
8
10
755.0766
20
6943.2804
0
VERTEX
8
8
10
864.7366
20
6944.5759
0
VERTEX
8
8
10
973.2369
20
6945.8112
0
VERTEX
8
8
10
1080.5877
20
6947.0076
0
VERTEX
8
8
10
1186.8079
20
6948.1689
0
VERTEX
8
8
10
1291.8988
20
6949.2750
0
VERTEX
8
8
10
1395.8789
20
6950.3511
0
VERTEX
8
8
10
1498.7442
20
6951.3770
0
VERTEX
8
8
10
1600.5000
20
6952.3758
0
VERTEX
8
8
10
1701.1468
20
6953.3393
0
VERTEX
8
8
10
1800.6814
20
6954.2690
0
VERTEX
8
8
10
1899.1015
20
6955.1568
0
VERTEX
8
8
10
1996.3888
20
6956.0221
0
VERTEX
8
8
10
2092.5409
20
6956.8473
0
VERTEX
8
8
10
2187.5554
20
6957.6551
0
VERTEX
8
8
10
2281.3995
20
6958.4215
0
VERTEX
8
8
10
2374.0815
20
6959.1624
0
VERTEX
8
8
10
2465.5950
20
6959.8755
0
VERTEX
8
8
10
2556.0025
20
6960.5540
0
VERTEX
8
8
10
2645.2774
20
6961.2089
0
VERTEX
8
8
10
2733.4108
20
6961.8231
0
VERTEX
8
8
10
2820.3509
20
6962.4103
0
VERTEX
8
8
10
2906.0572
20
6962.9760
0
VERTEX
8
8
10
2990.5070
20
6963.5211
0
VERTEX
8
8
10
3073.6374
20
6964.0455
0
VERTEX
8
8
10
3155.4071
20
6964.5546
0
VERTEX
8
8
10
3235.7739
20
6965.0446
0
VERTEX
8
8
10
3314.6657
20
6965.5134
0
VERTEX
8
8
10
3392.0303
20
6965.9662
0
VERTEX
8
8
10
3467.7846
20
6966.3977
0
VERTEX
8
8
10
3541.8955
20
6966.8121
0
VERTEX
8
8
10
3614.2428
20
6967.2265
0
VERTEX
8
8
10
3684.7782
20
6967.6105
0
VERTEX
8
8
10
3753.3775
20
6967.9777
0
VERTEX
8
8
10
3819.9671
20
6968.3376
0
VERTEX
8
8
10
3884.4032
20
6968.6739
0
VERTEX
8
8
10
3946.5865
20
6969.0022
0
VERTEX
8
8
10
4006.3606
20
6969.3062
0
VERTEX
8
8
10
4063.5293
20
6969.5960
0
VERTEX
8
8
10
4117.9171
20
6969.8687
0
VERTEX
8
8
10
4169.2415
20
6970.1250
0
VERTEX
8
8
10
4217.0980
20
6970.3615
0
VERTEX
8
8
10
4260.5305
20
6970.5893
0
VERTEX
8
8
10
4292.1904
20
6970.7544
0
SEQEND
0
TEXT
8
19
62
3
10
24.8733
20
5657.7049
40
12.0000
50
-0.3520
1
5
0
POLYLINE
8
8
62
8
66
1
6
CONTINUOUS
0
VERTEX
8
8
10
4778.1934
20
6054.4423
0
VERTEX
8
8
10
4778.2445
20
6044.4424
0
SEQEND
0
POLYLINE
8
8
62
8
66
1
6
CONTINUOUS
0
VERTEX
8
8
10
4783.2189
20
6049.4679
0
VERTEX
8
8
10
4773.2190
20
6049.4168
0
SEQEND
0
POLYLINE
8
8
62
8
66
1
6
CONTINUOUS
0
VERTEX
8
8
10
4323.5640
20
6831.4678
0
VERTEX
8
8
10
4323.6151
20
6821.4679
0
SEQEND
0
POLYLINE
8
8
62
8
66
1
6
CONTINUOUS
0
VERTEX
8
8
10
4328.5895
20
6826.4935
0
VERTEX
8
8
10
4318.5896
20
6826.4423
0
SEQEND
0
ENDBLK
0
BLOCK
2
Panel6
10
0
20
0
30
0
70
0
0
POLYLINE
8
1
62
1
66
1
6
CONTINUOUS
70
1
0
VERTEX
8
1
10
4222.6474
20
7032.3720
0
VERTEX
8
1
10
4182.9667
20
7032.1541
0
VERTEX
8
1
10
4129.3319
20
7031.8780
0
VERTEX
8
1
10
4070.0289
20
7031.6187
0
VERTEX
8
1
10
4006.1617
20
7031.3552
0
VERTEX
8
1
10
3938.2326
20
7031.1005
0
VERTEX
8
1
10
3866.5844
20
7030.8415
0
VERTEX
8
1
10
3791.5348
20
7030.5886
0
VERTEX
8
1
10
3713.3168
20
7030.3193
0
VERTEX
8
1
10
3632.1446
20
7030.0567
0
VERTEX
8
1
10
3548.1826
20
7029.7900
0
VERTEX
8
1
10
3461.6037
20
7029.5294
0
VERTEX
8
1
10
3372.5537
20
7029.2633
0
VERTEX
8
1
10
3281.1591
20
7028.9976
0
VERTEX
8
1
10
3187.5268
20
7028.7383
0
VERTEX
8
1
10
3091.7839
20
7028.4775
0
VERTEX
8
1
10
2994.0095
20
7028.2273
0
VERTEX
8
1
10
2894.3053
20
7027.9879
0
VERTEX
8
1
10
2792.7561
20
7027.7754
0
VERTEX
8
1
10
2689.4136
20
7027.5695
0
VERTEX
8
1
10
2584.3618
20
7027.3886
0
VERTEX
8
1
10
2477.6606
20
7027.2370
0
VERTEX
8
1
10
2369.3478
20
7027.1135
0
VERTEX
8
1
10
2259.4453
20
7027.0272
0
VERTEX
8
1
10
2147.8587
20
7026.9809
0
VERTEX
8
1
10
2034.6129
20
7026.9530
0
VERTEX
8
1
10
1919.7139
20
7026.9528
0
VERTEX
8
1
10
1803.2116
20
7026.9905
0
VERTEX
8
1
10
1685.0913
20
7027.0616
0
VERTEX
8
1
10
1565.3890
20
7027.1636
0
VERTEX
8
1
10
1444.0927
20
7027.3146
0
VERTEX
8
1
10
1321.2156
20
7027.4981
0
VERTEX
8
1
10
1196.7406
20
7027.7329
0
VERTEX
8
1
10
1070.6818
20
7028.0154
0
VERTEX
8
1
10
943.0105
20
7028.3336
0
VERTEX
8
1
10
813.7019
20
7028.7196
0
VERTEX
8
1
10
682.7350
20
7029.1576
0
VERTEX
8
1
10
550.0612
20
7029.6405
0
VERTEX
8
1
10
415.6038
20
7030.2017
0
VERTEX
8
1
10
279.2780
20
7030.8224
0
VERTEX
8
1
10
140.8605
20
7031.5299
0
VERTEX
8
1
10
-0.1272
20
7032.3720
0
VERTEX
8
1
10
2.5531
20
7080.2849
0
VERTEX
8
1
10
7.4430
20
7168.9694
0
VERTEX
8
1
10
11.2390
20
7239.3989
0
VERTEX
8
1
10
14.4624
20
7301.2471
0
VERTEX
8
1
10
17.9193
20
7368.4114
0
VERTEX
8
1
10
21.4022
20
7437.2861
0
VERTEX
8
1
10
24.7166
20
7504.6967
0
VERTEX
8
1
10
27.9348
20
7571.7812
0
VERTEX
8
1
10
31.1095
20
7639.2754
0
VERTEX
8
1
10
34.2127
20
7706.9183
0
VERTEX
8
1
10
37.2267
20
7774.3998
0
VERTEX
8
1
10
40.1467
20
7841.4945
0
VERTEX
8
1
10
43.0016
20
7909.0046
0
VERTEX
8
1
10
45.8369
20
7977.9501
0
VERTEX
8
1
10
48.5149
20
8044.8317
0
VERTEX
8
1
10
50.9438
20
8106.7206
0
VERTEX
8
1
10
53.6476
20
8178.5386
0
VERTEX
8
1
10
56.8601
20
8267.3374
0
VERTEX
8
1
10
58.5141
20
8314.3357
0
VERTEX
8
1
10
59.3946
20
8339.3526
0
VERTEX
8
1
10
170.3712
20
8341.0988
0
VERTEX
8
1
10
280.6428
20
8342.7588
0
VERTEX
8
1
10
389.2793
20
8344.3446
0
VERTEX
8
1
10
496.4477
20
8345.8468
0
VERTEX
8
1
10
602.2309
20
8347.2824
0
VERTEX
8
1
10
706.6706
20
8348.6660
0
VERTEX
8
1
10
809.8272
20
8349.9778
0
VERTEX
8
1
10
911.7101
20
8351.2464
0
VERTEX
8
1
10
1012.3519
20
8352.4620
0
VERTEX
8
1
10
1111.7481
20
8353.6206
0
VERTEX
8
1
10
1209.9248
20
8354.7378
0
VERTEX
8
1
10
1306.8823
20
8355.8015
0
VERTEX
8
1
10
1402.6152
20
8356.8316
0
VERTEX
8
1
10
1497.1358
20
8357.8109
0
VERTEX
8
1
10
1590.4288
20
8358.7480
0
VERTEX
8
1
10
1682.4850
20
8359.6540
0
VERTEX
8
1
10
1773.3082
20
8360.5100
0
VERTEX
8
1
10
1862.8652
20
8361.3348
0
VERTEX
8
1
10
1951.1506
20
8362.1215
0
VERTEX
8
1
10
2038.2677
20
8362.8793
0
VERTEX
8
1
10
2124.2296
20
8363.5869
0
VERTEX
8
1
10
2208.9840
20
8364.2566
0
VERTEX
8
1
10
2292.4786
20
8364.8971
0
VERTEX
8
1
10
2374.6742
20
8365.5011
0
VERTEX
8
1
10
2455.5047
20
8366.0784
0
VERTEX
8
1
10
2534.8747
20
8366.6372
0
VERTEX
8
1
10
2612.7438
20
8367.1627
0
VERTEX
8
1
10
2689.0161
20
8367.6689
0
VERTEX
8
1
10
2763.5938
20
8368.1575
0
VERTEX
8
1
10
2836.3866
20
8368.6152
0
VERTEX
8
1
10
2907.2944
20
8369.0620
0
VERTEX
8
1
10
2976.1863
20
8369.4830
0
VERTEX
8
1
10
3042.9315
20
8369.8897
0
VERTEX
8
1
10
3107.3985
20
8370.2714
0
VERTEX
8
1
10
3169.3954
20
8370.6310
0
VERTEX
8
1
10
3228.7291
20
8370.9803
0
VERTEX
8
1
10
3285.1972
20
8371.3013
0
VERTEX
8
1
10
3338.5038
20
8371.6050
0
VERTEX
8
1
10
3388.2986
20
8371.8891
0
VERTEX
8
1
10
3433.8700
20
8372.1846
0
VERTEX
8
1
10
3454.6791
20
8372.3272
0
VERTEX
8
1
10
3468.9334
20
8347.4244
0
VERTEX
8
1
10
3499.7359
20
8293.6108
0
VERTEX
8
1
10
3550.6287
20
8204.5758
0
VERTEX
8
1
10
3589.0048
20
8137.4642
0
VERTEX
8
1
10
3626.5324
20
8071.8528
0
VERTEX
8
1
10
3666.9432
20
8001.2384
0
VERTEX
8
1
10
3706.7943
20
7931.6118
0
VERTEX
8
1
10
3746.2082
20
7862.7735
0
VERTEX
8
1
10
3785.8691
20
7793.5264
0
VERTEX
8
1
10
3825.5557
20
7724.2541
0
VERTEX
8
1
10
3865.2185
20
7655.0482
0
VERTEX
8
1
10
3904.9405
20
7585.7525
0
VERTEX
8
1
10
3944.5417
20
7516.6973
0
VERTEX
8
1
10
3984.0874
20
7447.7636
0
VERTEX
8
1
10
4024.4063
20
7377.4978
0
VERTEX
8
1
10
4064.1003
20
7308.3392
0
VERTEX
8
1
10
4100.9306
20
7244.1875
0
VERTEX
8
1
10
4144.2887
20
7168.7057
0
VERTEX
8
1
10
4196.2668
20
7078.2598
0
VERTEX
8
1
10
4222.6474
20
7032.3720
0
SEQEND
0
POLYLINE
8
8
62
8
66
1
6
CONTINUOUS
0
VERTEX
8
8
10
58.5141
20
8314.3357
0
VERTEX
8
8
10
170.7646
20
8316.1019
0
VERTEX
8
8
10
281.0190
20
8317.7616
0
VERTEX
8
8
10
389.6442
20
8319.3472
0
VERTEX
8
8
10
496.7981
20
8320.8493
0
VERTEX
8
8
10
602.5701
20
8322.2848
0
VERTEX
8
8
10
707.0017
20
8323.6682
0
VERTEX
8
8
10
810.1451
20
8324.9798
0
VERTEX
8
8
10
912.0213
20
8326.2483
0
VERTEX
8
8
10
1012.6538
20
8327.4638
0
VERTEX
8
8
10
1112.0395
20
8328.6223
0
VERTEX
8
8
10
1210.2093
20
8329.7394
0
VERTEX
8
8
10
1307.1565
20
8330.8030
0
VERTEX
8
8
10
1402.8842
20
8331.8331
0
VERTEX
8
8
10
1497.3948
20
8332.8122
0
VERTEX
8
8
10
1590.6799
20
8333.7492
0
VERTEX
8
8
10
1682.7310
20
8334.6552
0
VERTEX
8
8
10
1773.5439
20
8335.5111
0
VERTEX
8
8
10
1863.0955
20
8336.3358
0
VERTEX
8
8
10
1951.3734
20
8337.1225
0
VERTEX
8
8
10
2038.4851
20
8337.8803
0
VERTEX
8
8
10
2124.4354
20
8338.5878
0
VERTEX
8
8
10
2209.1815
20
8339.2574
0
VERTEX
8
8
10
2292.6704
20
8339.8978
0
VERTEX
8
8
10
2374.8579
20
8340.5018
0
VERTEX
8
8
10
2455.6832
20
8341.0790
0
VERTEX
8
8
10
2535.0507
20
8341.6378
0
VERTEX
8
8
10
2612.9125
20
8342.1633
0
VERTEX
8
8
10
2689.1820
20
8342.6695
0
VERTEX
8
8
10
2763.7576
20
8343.1580
0
VERTEX
8
8
10
2836.5438
20
8343.6157
0
VERTEX
8
8
10
2907.4519
20
8344.0625
0
VERTEX
8
8
10
2976.3391
20
8344.4835
0
VERTEX
8
8
10
3043.0838
20
8344.8901
0
VERTEX
8
8
10
3107.5466
20
8345.2718
0
VERTEX
8
8
10
3169.5404
20
8345.6314
0
VERTEX
8
8
10
3228.8763
20
8345.9808
0
VERTEX
8
8
10
3285.3393
20
8346.3017
0
VERTEX
8
8
10
3338.6462
20
8346.6054
0
VERTEX
8
8
10
3388.4412
20
8346.8895
0
VERTEX
8
8
10
3434.0321
20
8347.1851
0
VERTEX
8
8
10
3468.9334
20
8347.4244
0
SEQEND
0
TEXT
8
19
62
3
10
24.8783
20
7033.2226
40
12.0000
50
-0.3422
1
6
0
POLYLINE
8
8
62
8
66
1
6
CONTINUOUS
0
VERTEX
8
8
10
3803.6367
20
7672.5684
0
VERTEX
8
8
10
3803.6916
20
7662.5686
0
SEQEND
0
POLYLINE
8
8
62
8
66
1
6
CONTINUOUS
0
VERTEX
8
8
10
3808.6641
20
7667.5960
0
VERTEX
8
8
10
3798.6642
20
7667.5411
0
SEQEND
0
ENDBLK
0
BLOCK
2
Panel7
10
0
20
0
30
0
70
0
0
POLYLINE
8
1
62
1
66
1
6
CONTINUOUS
70
1
0
VERTEX
8
1
10
3410.3682
20
8417.8102
0
VERTEX
8
1
10
3364.8450
20
8417.4303
0
VERTEX
8
1
10
3306.1666
20
8417.0528
0
VERTEX
8
1
10
3241.6114
20
8416.6984
0
VERTEX
8
1
10
3172.0480
20
8416.3456
0
VERTEX
8
1
10
3098.0104
20
8416.0015
0
VERTEX
8
1
10
3019.9506
20
8415.6462
0
VERTEX
8
1
10
2938.2133
20
8415.2853
0
VERTEX
8
1
10
2853.0916
20
8414.9208
0
VERTEX
8
1
10
2764.8526
20
8414.5757
0
VERTEX
8
1
10
2673.7335
20
8414.2274
0
VERTEX
8
1
10
2579.9252
20
8413.8965
0
VERTEX
8
1
10
2483.5922
20
8413.5753
0
VERTEX
8
1
10
2384.9143
20
8413.2837
0
VERTEX
8
1
10
2284.0410
20
8413.0080
0
VERTEX
8
1
10
2181.0751
20
8412.7759
0
VERTEX
8
1
10
2076.1536
20
8412.5793
0
VERTEX
8
1
10
1969.3755
20
8412.4303
0
VERTEX
8
1
10
1860.7955
20
8412.3471
0
VERTEX
8
1
10
1750.3426
20
8412.3113
0
VERTEX
8
1
10
1637.9391
20
8412.3220
0
VERTEX
8
1
10
1523.6038
20
8412.3929
0
VERTEX
8
1
10
1407.3818
20
8412.4930
0
VERTEX
8
1
10
1289.2642
20
8412.6545
0
VERTEX
8
1
10
1169.2648
20
8412.8632
0
VERTEX
8
1
10
1047.3856
20
8413.1434
0
VERTEX
8
1
10
923.6127
20
8413.4797
0
VERTEX
8
1
10
797.9207
20
8413.8775
0
VERTEX
8
1
10
670.2976
20
8414.3365
0
VERTEX
8
1
10
540.6764
20
8414.8637
0
VERTEX
8
1
10
409.0001
20
8415.4656
0
VERTEX
8
1
10
275.1498
20
8416.1448
0
VERTEX
8
1
10
138.9138
20
8416.9122
0
VERTEX
8
1
10
-0.2375
20
8417.8102
0
VERTEX
8
1
10
2.1349
20
8466.0714
0
VERTEX
8
1
10
6.4550
20
8555.1335
0
VERTEX
8
1
10
9.7794
20
8625.7046
0
VERTEX
8
1
10
12.6051
20
8687.8648
0
VERTEX
8
1
10
15.6063
20
8755.4227
0
VERTEX
8
1
10
18.6073
20
8824.5888
0
VERTEX
8
1
10
21.4509
20
8892.2795
0
VERTEX
8
1
10
24.2055
20
8959.6887
0
VERTEX
8
1
10
26.8935
20
9027.5026
0
VERTEX
8
1
10
29.5000
20
9095.4231
0
VERTEX
8
1
10
32.0120
20
9163.0916
0
VERTEX
8
1
10
34.4317
20
9230.5491
0
VERTEX
8
1
10
36.7999
20
9298.9740
0
VERTEX
8
1
10
39.0897
20
9367.8116
0
VERTEX
8
1
10
41.1803
20
9432.4481
0
VERTEX
8
1
10
43.1979
20
9497.2539
0
VERTEX
8
1
10
45.5765
20
9579.6056
0
VERTEX
8
1
10
47.9651
20
9665.4404
0
VERTEX
8
1
10
49.0376
20
9705.5774
0
VERTEX
8
1
10
49.7061
20
9730.5920
0
VERTEX
8
1
10
153.5975
20
9732.3248
0
VERTEX
8
1
10
256.5761
20
9733.9684
0
VERTEX
8
1
10
357.8590
20
9735.5239
0
VERTEX
8
1
10
457.5804
20
9737.0074
0
VERTEX
8
1
10
555.8024
20
9738.4306
0
VERTEX
8
1
10
652.6012
20
9739.7797
0
VERTEX
8
1
10
747.9819
20
9741.0646
0
VERTEX
8
1
10
841.9742
20
9742.2820
0
VERTEX
8
1
10
934.5982
20
9743.4526
0
VERTEX
8
1
10
1025.8749
20
9744.5534
0
VERTEX
8
1
10
1115.7835
20
9745.6021
0
VERTEX
8
1
10
1204.3428
20
9746.5896
0
VERTEX
8
1
10
1291.5277
20
9747.5316
0
VERTEX
8
1
10
1377.3350
20
9748.4187
0
VERTEX
8
1
10
1461.7266
20
9749.2526
0
VERTEX
8
1
10
1544.7799
20
9750.0462
0
VERTEX
8
1
10
1626.5790
20
9750.7771
0
VERTEX
8
1
10
1707.0652
20
9751.4572
0
VERTEX
8
1
10
1786.1759
20
9752.0846
0
VERTEX
8
1
10
1863.8194
20
9752.6673
0
VERTEX
8
1
10
1939.8901
20
9753.2072
0
VERTEX
8
1
10
2014.2897
20
9753.7114
0
VERTEX
8
1
10
2086.8869
20
9754.1864
0
VERTEX
8
1
10
2157.5566
20
9754.6255
0
VERTEX
8
1
10
2226.1272
20
9755.0289
0
VERTEX
8
1
10
2292.4453
20
9755.4092
0
VERTEX
8
1
10
2356.3137
20
9755.7673
0
VERTEX
8
1
10
2417.4803
20
9756.1036
0
VERTEX
8
1
10
2475.7106
20
9756.4128
0
VERTEX
8
1
10
2530.6528
20
9756.7031
0
VERTEX
8
1
10
2581.9743
20
9756.9514
0
VERTEX
8
1
10
2628.9320
20
9757.2184
0
VERTEX
8
1
10
2651.8491
20
9757.3814
0
VERTEX
8
1
10
2665.9484
20
9732.4810
0
VERTEX
8
1
10
2692.9882
20
9684.7266
0
VERTEX
8
1
10
2744.3328
20
9593.8627
0
VERTEX
8
1
10
2785.7166
20
9520.6462
0
VERTEX
8
1
10
2821.9665
20
9456.5336
0
VERTEX
8
1
10
2861.2761
20
9387.0198
0
VERTEX
8
1
10
2900.9813
20
9316.8106
0
VERTEX
8
1
10
2939.9622
20
9247.9141
0
VERTEX
8
1
10
2979.0632
20
9178.8275
0
VERTEX
8
1
10
3018.2861
20
9109.5411
0
VERTEX
8
1
10
3057.4538
20
9040.3763
0
VERTEX
8
1
10
3096.6708
20
8971.1193
0
VERTEX
8
1
10
3135.8641
20
8901.9290
0
VERTEX
8
1
10
3174.8429
20
8833.1442
0
VERTEX
8
1
10
3214.3234
20
8763.4916
0
VERTEX
8
1
10
3254.2644
20
8693.0239
0
VERTEX
8
1
10
3291.2695
20
8627.7478
0
VERTEX
8
1
10
3329.6167
20
8560.1208
0
VERTEX
8
1
10
3380.3033
20
8470.7971
0
VERTEX
8
1
10
3410.3682
20
8417.8102
0
SEQEND
0
POLYLINE
8
8
62
8
66
1
6
CONTINUOUS
0
VERTEX
8
8
10
49.0376
20
9705.5774
0
VERTEX
8
8
10
154.0144
20
9707.3283
0
VERTEX
8
8
10
256.9750
20
9708.9716
0
VERTEX
8
8
10
358.2429
20
9710.5268
0
VERTEX
8
8
10
457.9523
20
9712.0102
0
VERTEX
8
8
10
556.1646
20
9713.4332
0
VERTEX
8
8
10
652.9496
20
9714.7822
0
VERTEX
8
8
10
748.3187
20
9716.0669
0
VERTEX
8
8
10
842.2980
20
9717.2841
0
VERTEX
8
8
10
934.9141
20
9718.4546
0
VERTEX
8
8
10
1026.1763
20
9719.5552
0
VERTEX
8
8
10
1116.0751
20
9720.6038
0
VERTEX
8
8
10
1204.6216
20
9721.5912
0
VERTEX
8
8
10
1291.7978
20
9722.5331
0
VERTEX
8
8
10
1377.5935
20
9723.4200
0
VERTEX
8
8
10
1461.9736
20
9724.2539
0
VERTEX
8
8
10
1545.0188
20
9725.0474
0
VERTEX
8
8
10
1626.8024
20
9725.7781
0
VERTEX
8
8
10
1707.2764
20
9726.4581
0
VERTEX
8
8
10
1786.3742
20
9727.0854
0
VERTEX
8
8
10
1864.0070
20
9727.6680
0
VERTEX
8
8
10
1940.0675
20
9728.2078
0
VERTEX
8
8
10
2014.4591
20
9728.7120
0
VERTEX
8
8
10
2087.0504
20
9729.1869
0
VERTEX
8
8
10
2157.7119
20
9729.6260
0
VERTEX
8
8
10
2226.2742
20
9730.0293
0
VERTEX
8
8
10
2292.5887
20
9730.4096
0
VERTEX
8
8
10
2356.4538
20
9730.7677
0
VERTEX
8
8
10
2417.6177
20
9731.1040
0
VERTEX
8
8
10
2475.8433
20
9731.4131
0
VERTEX
8
8
10
2530.7849
20
9731.7034
0
VERTEX
8
8
10
2582.0953
20
9731.9517
0
VERTEX
8
8
10
2629.0742
20
9732.2188
0
VERTEX
8
8
10
2665.9484
20
9732.4810
0
SEQEND
0
TEXT
8
19
62
3
10
24.7685
20
8418.6488
40
12.0000
50
-0.3697
1
7
0
POLYLINE
8
8
62
8
66
1
6
CONTINUOUS
0
VERTEX
8
8
10
3296.2315
20
8523.2945
0
VERTEX
8
8
10
3296.3150
20
8513.2948
0
SEQEND
0
POLYLINE
8
8
62
8
66
1
6
CONTINUOUS
0
VERTEX
8
8
10
3301.2731
20
8518.3364
0
VERTEX
8
8
10
3291.2734
20
8518.2529
0
SEQEND
0
POLYLINE
8
8
62
8
66
1
6
CONTINUOUS
0
VERTEX
8
8
10
2852.4341
20
9306.5097
0
VERTEX
8
8
10
2852.5175
20
9296.5101
0
SEQEND
0
POLYLINE
8
8
62
8
66
1
6
CONTINUOUS
0
VERTEX
8
8
10
2857.4756
20
9301.5516
0
VERTEX
8
8
10
2847.4760
20
9301.4682
0
SEQEND
0
ENDBLK
0
BLOCK
2
Panel8
10
0
20
0
30
0
70
0
0
POLYLINE
8
1
62
1
66
1
6
CONTINUOUS
70
1
0
VERTEX
8
1
10
2616.8630
20
9805.7739
0
VERTEX
8
1
10
2565.4574
20
9805.2792
0
VERTEX
8
1
10
2500.5729
20
9804.8979
0
VERTEX
8
1
10
2428.9812
20
9804.5527
0
VERTEX
8
1
10
2351.6508
20
9804.2167
0
VERTEX
8
1
10
2269.3194
20
9803.8906
0
VERTEX
8
1
10
2182.5501
20
9803.5512
0
VERTEX
8
1
10
2091.8184
20
9803.2462
0
VERTEX
8
1
10
1997.5083
20
9802.9472
0
VERTEX
8
1
10
1899.9649
20
9802.6758
0
VERTEX
8
1
10
1799.4783
20
9802.4339
0
VERTEX
8
1
10
1696.3041
20
9802.2337
0
VERTEX
8
1
10
1590.6401
20
9802.0814
0
VERTEX
8
1
10
1482.6859
20
9801.9782
0
VERTEX
8
1
10
1372.5139
20
9801.9395
0
VERTEX
8
1
10
1259.9220
20
9801.9499
0
VERTEX
8
1
10
1144.9135
20
9802.0160
0
VERTEX
8
1
10
1027.5228
20
9802.1407
0
VERTEX
8
1
10
907.7774
20
9802.3193
0
VERTEX
8
1
10
785.6494
20
9802.5677
0
VERTEX
8
1
10
661.1361
20
9802.8799
0
VERTEX
8
1
10
534.1990
20
9803.2726
0
VERTEX
8
1
10
404.7731
20
9803.7387
0
VERTEX
8
1
10
272.7319
20
9804.3014
0
VERTEX
8
1
10
137.8991
20
9804.9713
0
VERTEX
8
1
10
-0.2423
20
9805.7739
0
VERTEX
8
1
10
1.8189
20
9854.8856
0
VERTEX
8
1
10
5.5118
20
9944.5706
0
VERTEX
8
1
10
8.2961
20
10015.1200
0
VERTEX
8
1
10
10.6541
20
10077.9332
0
VERTEX
8
1
10
13.1678
20
10146.2943
0
VERTEX
8
1
10
15.6404
20
10215.9474
0
VERTEX
8
1
10
17.9548
20
10284.1117
0
VERTEX
8
1
10
20.1748
20
10352.1175
0
VERTEX
8
1
10
22.3167
20
10420.5158
0
VERTEX
8
1
10
24.3628
20
10488.9989
0
VERTEX
8
1
10
26.3015
20
10557.2808
0
VERTEX
8
1
10
28.1471
20
10625.2218
0
VERTEX
8
1
10
29.9110
20
10693.8692
0
VERTEX
8
1
10
31.5908
20
10763.5880
0
VERTEX
8
1
10
33.1252
20
10830.0441
0
VERTEX
8
1
10
34.5131
20
10893.6535
0
VERTEX
8
1
10
36.0517
20
10972.2179
0
VERTEX
8
1
10
37.6620
20
11060.8014
0
VERTEX
8
1
10
38.3985
20
11104.1343
0
VERTEX
8
1
10
38.8235
20
11129.1435
0
VERTEX
8
1
10
133.7234
20
11130.5618
0
VERTEX
8
1
10
227.4680
20
11131.8936
0
VERTEX
8
1
10
319.4480
20
11133.1332
0
VERTEX
8
1
10
409.7671
20
11134.2961
0
VERTEX
8
1
10
498.4669
20
11135.3902
0
VERTEX
8
1
10
585.5932
20
11136.4153
0
VERTEX
8
1
10
671.1629
20
11137.3814
0
VERTEX
8
1
10
755.1675
20
11138.2972
0
VERTEX
8
1
10
837.6104
20
11139.1569
0
VERTEX
8
1
10
918.4650
20
11139.9704
0
VERTEX
8
1
10
997.6983
20
11140.7354
0
VERTEX
8
1
10
1075.2784
20
11141.4528
0
VERTEX
8
1
10
1151.3099
20
11142.1292
0
VERTEX
8
1
10
1225.7447
20
11142.7482
0
VERTEX
8
1
10
1298.4503
20
11143.3241
0
VERTEX
8
1
10
1369.2970
20
11143.8657
0
VERTEX
8
1
10
1438.1318
20
11144.3695
0
VERTEX
8
1
10
1504.7576
20
11144.8318
0
VERTEX
8
1
10
1569.0008
20
11145.2572
0
VERTEX
8
1
10
1630.5700
20
11145.6446
0
VERTEX
8
1
10
1689.1887
20
11146.0044
0
VERTEX
8
1
10
1744.5085
20
11146.3423
0
VERTEX
8
1
10
1796.1081
20
11146.6532
0
VERTEX
8
1
10
1843.2180
20
11146.9788
0
VERTEX
8
1
10
1866.5058
20
11147.1860
0
VERTEX
8
1
10
1880.4332
20
11122.3089
0
VERTEX
8
1
10
1906.8612
20
11075.1035
0
VERTEX
8
1
10
1957.5829
20
10984.1959
0
VERTEX
8
1
10
1998.8842
20
10910.2169
0
VERTEX
8
1
10
2034.7729
20
10845.9289
0
VERTEX
8
1
10
2073.6301
20
10776.3480
0
VERTEX
8
1
10
2112.9081
20
10706.0351
0
VERTEX
8
1
10
2151.4679
20
10637.0272
0
VERTEX
8
1
10
2190.1334
20
10567.8467
0
VERTEX
8
1
10
2228.9301
20
10498.4679
0
VERTEX
8
1
10
2267.6759
20
10429.1912
0
VERTEX
8
1
10
2306.4765
20
10359.8438
0
VERTEX
8
1
10
2345.2536
20
10290.5631
0
VERTEX
8
1
10
2383.8097
20
10221.6769
0
VERTEX
8
1
10
2422.8628
20
10151.9310
0
VERTEX
8
1
10
2462.3935
20
10081.3726
0
VERTEX
8
1
10
2499.0182
20
10015.9972
0
VERTEX
8
1
10
2536.9521
20
9948.2923
0
VERTEX
8
1
10
2587.0970
20
9858.8503
0
VERTEX
8
1
10
2616.8630
20
9805.7739
0
SEQEND
0
POLYLINE
8
8
62
8
66
1
6
CONTINUOUS
0
VERTEX
8
8
10
38.3985
20
11104.1343
0
VERTEX
8
8
10
134.0970
20
11105.5646
0
VERTEX
8
8
10
227.8232
20
11106.8961
0
VERTEX
8
8
10
319.7848
20
11108.1354
0
VERTEX
8
8
10
410.0890
20
11109.2982
0
VERTEX
8
8
10
498.7752
20
11110.3921
0
VERTEX
8
8
10
585.8873
20
11111.4170
0
VERTEX
8
8
10
671.4452
20
11112.3830
0
VERTEX
8
8
10
755.4400
20
11113.2987
0
VERTEX
8
8
10
837.8711
20
11114.1583
0
VERTEX
8
8
10
918.7165
20
11114.9716
0
VERTEX
8
8
10
997.9397
20
11115.7366
0
VERTEX
8
8
10
1075.5096
20
11116.4539
0
VERTEX
8
8
10
1151.5323
20
11117.1301
0
VERTEX
8
8
10
1225.9526
20
11117.7490
0
VERTEX
8
8
10
1298.6484
20
11118.3249
0
VERTEX
8
8
10
1369.4881
20
11118.8664
0
VERTEX
8
8
10
1438.3148
20
11119.3702
0
VERTEX
8
8
10
1504.9311
20
11119.8324
0
VERTEX
8
8
10
1569.1663
20
11120.2577
0
VERTEX
8
8
10
1630.7273
20
11120.6451
0
VERTEX
8
8
10
1689.3421
20
11121.0049
0
VERTEX
8
8
10
1744.6611
20
11121.3427
0
VERTEX
8
8
10
1796.2588
20
11121.6536
0
VERTEX
8
8
10
1843.3909
20
11121.9794
0
VERTEX
8
8
10
1880.4332
20
11122.3089
0
SEQEND
0
TEXT
8
19
62
3
10
24.7631
20
9806.6286
40
12.0000
50
-0.3329
1
8
0
POLYLINE
8
8
62
8
66
1
6
CONTINUOUS
0
VERTEX
8
8
10
2360.8690
20
10163.7588
0
VERTEX
8
8
10
2360.9652
20
10153.7592
0
SEQEND
0
POLYLINE
8
8
62
8
66
1
6
CONTINUOUS
0
VERTEX
8
8
10
2365.9169
20
10158.8071
0
VERTEX
8
8
10
2355.9173
20
10158.7109
0
SEQEND
0
POLYLINE
8
8
62
8
66
1
6
CONTINUOUS
0
VERTEX
8
8
10
1922.7470
20
10950.1716
0
VERTEX
8
8
10
1922.8433
20
10940.1721
0
SEQEND
0
POLYLINE
8
8
62
8
66
1
6
CONTINUOUS
0
VERTEX
8
8
10
1927.7949
20
10945.2200
0
VERTEX
8
8
10
1917.7954
20
10945.1238
0
SEQEND
0
ENDBLK
0
BLOCK
2
Panel9
10
0
20
0
30
0
70
0
0
POLYLINE
8
1
62
1
66
1
6
CONTINUOUS
70
1
0
VERTEX
8
1
10
1842.0664
20
11193.1807
0
VERTEX
8
1
10
1790.6496
20
11192.7889
0
VERTEX
8
1
10
1725.7229
20
11192.5475
0
VERTEX
8
1
10
1653.9364
20
11192.3525
0
VERTEX
8
1
10
1576.4009
20
11192.1660
0
VERTEX
8
1
10
1493.8889
20
11191.9880
0
VERTEX
8
1
10
1407.0306
20
11191.8298
0
VERTEX
8
1
10
1316.3330
20
11191.6966
0
VERTEX
8
1
10
1222.2011
20
11191.5812
0
VERTEX
8
1
10
1124.9849
20
11191.4948
0
VERTEX
8
1
10
1024.9590
20
11191.4367
0
VERTEX
8
1
10
922.1939
20
11191.4123
0
VERTEX
8
1
10
816.5960
20
11191.4272
0
VERTEX
8
1
10
708.2400
20
11191.4770
0
VERTEX
8
1
10
597.1698
20
11191.5645
0
VERTEX
8
1
10
483.4031
20
11191.7073
0
VERTEX
8
1
10
366.9147
20
11191.9296
0
VERTEX
8
1
10
247.6301
20
11192.2326
0
VERTEX
8
1
10
125.4054
20
11192.6322
0
VERTEX
8
1
10
-0.1070
20
11193.1807
0
VERTEX
8
1
10
1.3906
20
11243.1491
0
VERTEX
8
1
10
4.0371
20
11333.6452
0
VERTEX
8
1
10
5.9748
20
11404.4384
0
VERTEX
8
1
10
7.5673
20
11468.0088
0
VERTEX
8
1
10
9.2425
20
11537.2620
0
VERTEX
8
1
10
10.8538
20
11607.5580
0
VERTEX
8
1
10
12.3166
20
11676.3625
0
VERTEX
8
1
10
13.6645
20
11744.9969
0
VERTEX
8
1
10
14.9119
20
11814.0103
0
VERTEX
8
1
10
16.0589
20
11883.2102
0
VERTEX
8
1
10
17.0973
20
11952.3930
0
VERTEX
8
1
10
18.0375
20
12021.2363
0
VERTEX
8
1
10
18.8754
20
12089.8305
0
VERTEX
8
1
10
19.6234
20
12159.6963
0
VERTEX
8
1
10
20.2798
20
12230.0133
0
VERTEX
8
1
10
20.8222
20
12294.8450
0
VERTEX
8
1
10
21.3019
20
12360.6489
0
VERTEX
8
1
10
21.7987
20
12448.2231
0
VERTEX
8
1
10
22.0676
20
12504.6198
0
VERTEX
8
1
10
22.1868
20
12529.6222
0
VERTEX
8
1
10
95.9187
20
12530.3619
0
VERTEX
8
1
10
168.3022
20
12531.0252
0
VERTEX
8
1
10
239.1000
20
12531.6156
0
VERTEX
8
1
10
308.3331
20
12532.1528
0
VERTEX
8
1
10
376.0443
20
12532.6465
0
VERTEX
8
1
10
442.2293
20
12533.1004
0
VERTEX
8
1
10
506.8590
20
12533.5221
0
VERTEX
8
1
10
569.8913
20
12533.9141
0
VERTEX
8
1
10
631.2392
20
12534.2868
0
VERTEX
8
1
10
690.9239
20
12534.6341
0
VERTEX
8
1
10
748.8577
20
12534.9609
0
VERTEX
8
1
10
804.9091
20
12535.2671
0
VERTEX
8
1
10
858.8963
20
12535.5445
0
VERTEX
8
1
10
910.5892
20
12535.8096
0
VERTEX
8
1
10
959.7545
20
12536.0519
0
VERTEX
8
1
10
1006.0789
20
12536.2691
0
VERTEX
8
1
10
1049.1797
20
12536.4676
0
VERTEX
8
1
10
1088.4273
20
12536.6797
0
VERTEX
8
1
10
1105.6317
20
12536.8002
0
VERTEX
8
1
10
1119.2723
20
12511.8950
0
VERTEX
8
1
10
1158.3115
20
12440.6170
0
VERTEX
8
1
10
1197.9657
20
12368.0446
0
VERTEX
8
1
10
1232.3608
20
12305.1220
0
VERTEX
8
1
10
1270.8365
20
12234.7566
0
VERTEX
8
1
10
1309.4304
20
12164.2001
0
VERTEX
8
1
10
1347.1689
20
12095.2306
0
VERTEX
8
1
10
1385.1749
20
12025.8238
0
VERTEX
8
1
10
1423.2118
20
11956.3618
0
VERTEX
8
1
10
1461.2102
20
11886.9943
0
VERTEX
8
1
10
1499.2536
20
11817.6049
0
VERTEX
8
1
10
1537.3472
20
11748.1132
0
VERTEX
8
1
10
1575.4004
20
11678.7256
0
VERTEX
8
1
10
1613.2427
20
11609.7456
0
VERTEX
8
1
10
1651.5982
20
11539.8459
0
VERTEX
8
1
10
1690.3836
20
11469.1940
0
VERTEX
8
1
10
1726.3062
20
11403.7853
0
VERTEX
8
1
10
1763.6268
20
11335.8758
0
VERTEX
8
1
10
1812.9031
20
11246.2243
0
VERTEX
8
1
10
1842.0664
20
11193.1807
0
SEQEND
0
POLYLINE
8
8
62
8
66
1
6
CONTINUOUS
0
VERTEX
8
8
10
22.0676
20
12504.6198
0
VERTEX
8
8
10
96.1695
20
12505.3632
0
VERTEX
8
8
10
168.5313
20
12506.0263
0
VERTEX
8
8
10
239.3085
20
12506.6165
0
VERTEX
8
8
10
308.5271
20
12507.1535
0
VERTEX
8
8
10
376.2266
20
12507.6472
0
VERTEX
8
8
10
442.4008
20
12508.1010
0
VERTEX
8
8
10
507.0221
20
12508.5226
0
VERTEX
8
8
10
570.0468
20
12508.9146
0
VERTEX
8
8
10
631.3911
20
12509.2872
0
VERTEX
8
8
10
691.0693
20
12509.6345
0
VERTEX
8
8
10
748.9987
20
12509.9613
0
VERTEX
8
8
10
805.0457
20
12510.2674
0
VERTEX
8
8
10
859.0248
20
12510.5448
0
VERTEX
8
8
10
910.7175
20
12510.8100
0
VERTEX
8
8
10
959.8777
20
12511.0522
0
VERTEX
8
8
10
1006.1961
20
12511.2694
0
VERTEX
8
8
10
1049.2948
20
12511.4678
0
VERTEX
8
8
10
1088.5625
20
12511.6801
0
VERTEX
8
8
10
1119.2723
20
12511.8950
0
SEQEND
0
TEXT
8
19
62
3
10
24.8972
20
11194.0715
40
12.0000
50
-0.2504
1
9
0
POLYLINE
8
8
62
8
66
1
6
CONTINUOUS
0
VERTEX
8
8
10
1451.2554
20
11810.3951
0
VERTEX
8
8
10
1451.3316
20
11800.3953
0
SEQEND
0
POLYLINE
8
8
62
8
66
1
6
CONTINUOUS
0
VERTEX
8
8
10
1456.2934
20
11805.4333
0
VERTEX
8
8
10
1446.2937
20
11805.3571
0
SEQEND
0
ENDBLK
0
BLOCK
2
Panel10
10
0
20
0
30
0
70
0
0
POLYLINE
8
1
62
1
66
1
6
CONTINUOUS
70
1
0
VERTEX
8
1
10
1097.2159
20
12583.4835
0
VERTEX
8
1
10
1066.5055
20
12583.3754
0
VERTEX
8
1
10
1027.2374
20
12583.2980
0
VERTEX
8
1
10
984.1382
20
12583.2565
0
VERTEX
8
1
10
937.8193
20
12583.2198
0
VERTEX
8
1
10
888.6585
20
12583.1821
0
VERTEX
8
1
10
836.9651
20
12583.1451
0
VERTEX
8
1
10
782.9853
20
12583.1197
0
VERTEX
8
1
10
726.9376
20
12583.0903
0
VERTEX
8
1
10
669.0072
20
12583.0659
0
VERTEX
8
1
10
609.3280
20
12583.0496
0
VERTEX
8
1
10
547.9826
20
12583.0377
0
VERTEX
8
1
10
484.9567
20
12583.0394
0
VERTEX
8
1
10
420.3340
20
12583.0498
0
VERTEX
8
1
10
354.1583
20
12583.0729
0
VERTEX
8
1
10
286.4569
20
12583.1092
0
VERTEX
8
1
10
217.2362
20
12583.1654
0
VERTEX
8
1
10
146.4566
20
12583.2445
0
VERTEX
8
1
10
74.0919
20
12583.3452
0
VERTEX
8
1
10
-0.0136
20
12583.4835
0
VERTEX
8
1
10
0.6646
20
12633.9779
0
VERTEX
8
1
10
1.8599
20
12725.0663
0
VERTEX
8
1
10
2.7146
20
12796.1387
0
VERTEX
8
1
10
3.4131
20
12860.2127
0
VERTEX
8
1
10
4.1414
20
12930.0230
0
VERTEX
8
1
10
4.8352
20
13000.7481
0
VERTEX
8
1
10
5.4547
20
13069.9964
0
VERTEX
8
1
10
6.0404
20
13139.1992
0
VERTEX
8
1
10
6.6101
20
13208.7838
0
VERTEX
8
1
10
7.1427
20
13278.4135
0
VERTEX
8
1
10
7.6427
20
13347.7856
0
VERTEX
8
1
10
8.1270
20
13416.9228
0
VERTEX
8
1
10
8.5981
20
13486.9679
0
VERTEX
8
1
10
9.0563
20
13557.5773
0
VERTEX
8
1
10
9.4852
20
13624.0173
0
VERTEX
8
1
10
9.9123
20
13690.5379
0
VERTEX
8
1
10
10.4734
20
13775.1940
0
VERTEX
8
1
10
11.0509
20
13862.9458
0
VERTEX
8
1
10
11.3096
20
13903.8014
0
VERTEX
8
1
10
11.4679
20
13928.8012
0
VERTEX
8
1
10
36.7115
20
13928.7726
0
VERTEX
8
1
10
61.5050
20
13928.7383
0
VERTEX
8
1
10
85.7592
20
13928.7086
0
VERTEX
8
1
10
109.4984
20
13928.6703
0
VERTEX
8
1
10
132.7211
20
13928.6275
0
VERTEX
8
1
10
155.4073
20
13928.5892
0
VERTEX
8
1
10
177.5742
20
13928.5550
0
VERTEX
8
1
10
199.2128
20
13928.5126
0
VERTEX
8
1
10
220.2624
20
13928.4651
0
VERTEX
8
1
10
240.7213
20
13928.4248
0
VERTEX
8
1
10
260.5757
20
13928.3888
0
VERTEX
8
1
10
279.7784
20
13928.3517
0
VERTEX
8
1
10
298.2699
20
13928.3118
0
VERTEX
8
1
10
315.9812
20
13928.2717
0
VERTEX
8
1
10
332.7976
20
13928.2390
0
VERTEX
8
1
10
348.6337
20
13928.2129
0
VERTEX
8
1
10
363.3787
20
13928.1834
0
VERTEX
8
1
10
373.4543
20
13928.1637
0
VERTEX
8
1
10
386.9582
20
13903.1420
0
VERTEX
8
1
10
413.2326
20
13854.4574
0
VERTEX
8
1
10
462.2475
20
13763.3166
0
VERTEX
8
1
10
501.1928
20
13690.9056
0
VERTEX
8
1
10
535.8867
20
13626.3883
0
VERTEX
8
1
10
573.5307
20
13556.3691
0
VERTEX
8
1
10
611.3859
20
13485.9823
0
VERTEX
8
1
10
648.5570
20
13416.8615
0
VERTEX
8
1
10
685.8643
20
13347.5017
0
VERTEX
8
1
10
723.2790
20
13277.9482
0
VERTEX
8
1
10
760.6422
20
13208.5073
0
VERTEX
8
1
10
798.0513
20
13138.9833
0
VERTEX
8
1
10
835.4163
20
13069.5325
0
VERTEX
8
1
10
872.5844
20
13000.4824
0
VERTEX
8
1
10
910.2507
20
12930.5080
0
VERTEX
8
1
10
948.3292
20
12859.7967
0
VERTEX
8
1
10
983.5704
20
12794.3643
0
VERTEX
8
1
10
1020.2373
20
12726.3091
0
VERTEX
8
1
10
1068.6241
20
12636.5159
0
VERTEX
8
1
10
1097.2159
20
12583.4835
0
SEQEND
0
POLYLINE
8
8
62
8
66
1
6
CONTINUOUS
0
VERTEX
8
8
10
11.3096
20
13903.8014
0
VERTEX
8
8
10
36.6831
20
13903.7726
0
VERTEX
8
8
10
61.4705
20
13903.7384
0
VERTEX
8
8
10
85.7285
20
13903.7086
0
VERTEX
8
8
10
109.4580
20
13903.6703
0
VERTEX
8
8
10
132.6750
20
13903.6276
0
VERTEX
8
8
10
155.3650
20
13903.5892
0
VERTEX
8
8
10
177.5357
20
13903.5550
0
VERTEX
8
8
10
199.1638
20
13903.5126
0
VERTEX
8
8
10
220.2061
20
13903.4652
0
VERTEX
8
8
10
240.6720
20
13903.4249
0
VERTEX
8
8
10
260.5304
20
13903.3888
0
VERTEX
8
8
10
279.7301
20
13903.3518
0
VERTEX
8
8
10
298.2160
20
13903.3119
0
VERTEX
8
8
10
315.9246
20
13903.2718
0
VERTEX
8
8
10
332.7490
20
13903.2391
0
VERTEX
8
8
10
348.5924
20
13903.2129
0
VERTEX
8
8
10
363.3286
20
13903.1834
0
VERTEX
8
8
10
376.6924
20
13903.1573
0
VERTEX
8
8
10
386.9582
20
13903.1420
0
SEQEND
0
TEXT
8
19
62
3
10
24.9882
20
12584.4368
40
12.0000
50
-0.1069
1
10
0
POLYLINE
8
8
62
8
66
1
6
CONTINUOUS
0
VERTEX
8
8
10
1000.2768
20
12673.6585
0
VERTEX
8
8
10
1000.3119
20
12663.6586
0
SEQEND
0
POLYLINE
8
8
62
8
66
1
6
CONTINUOUS
0
VERTEX
8
8
10
1005.2943
20
12668.6761
0
VERTEX
8
8
10
995.2944
20
12668.6409
0
SEQEND
0
POLYLINE
8
8
62
8
66
1
6
CONTINUOUS
0
VERTEX
8
8
10
577.2317
20
13468.3943
0
VERTEX
8
8
10
577.2668
20
13458.3944
0
SEQEND
0
POLYLINE
8
8
62
8
66
1
6
CONTINUOUS
0
VERTEX
8
8
10
582.2492
20
13463.4119
0
VERTEX
8
8
10
572.2493
20
13463.3767
0
SEQEND
0
ENDBLK
0
BLOCK
2
Panel11
10
0
20
0
30
0
70
0
0
POLYLINE
8
1
62
1
66
1
6
CONTINUOUS
70
1
0
VERTEX
8
1
10
375.3217
20
13963.1205
0
VERTEX
8
1
10
365.0648
20
13963.5490
0
VERTEX
8
1
10
351.7129
20
13964.1120
0
VERTEX
8
1
10
336.9898
20
13964.7331
0
VERTEX
8
1
10
321.1601
20
13965.3951
0
VERTEX
8
1
10
304.3507
20
13966.1030
0
VERTEX
8
1
10
286.6579
20
13966.8538
0
VERTEX
8
1
10
268.1885
20
13967.6356
0
VERTEX
8
1
10
249.0057
20
13968.4434
0
VERTEX
8
1
10
229.1649
20
13969.2768
0
VERTEX
8
1
10
208.7171
20
13970.1390
0
VERTEX
8
1
10
187.6936
20
13971.0315
0
VERTEX
8
1
10
166.0847
20
13971.9428
0
VERTEX
8
1
10
143.9333
20
13972.8677
0
VERTEX
8
1
10
121.2632
20
13973.8179
0
VERTEX
8
1
10
98.0666
20
13974.7938
0
VERTEX
8
1
10
74.3579
20
13975.7858
0
VERTEX
8
1
10
50.1207
20
13976.7905
0
VERTEX
8
1
10
25.3547
20
13977.8210
0
VERTEX
8
1
10
0.0028
20
13978.8692
0
VERTEX
8
1
10
0.5880
20
13991.4939
0
VERTEX
8
1
10
2.0883
20
14023.3161
0
VERTEX
8
1
10
4.0650
20
14065.2168
0
VERTEX
8
1
10
6.0904
20
14108.0681
0
VERTEX
8
1
10
7.8369
20
14144.9958
0
VERTEX
8
1
10
9.3631
20
14176.9515
0
VERTEX
8
1
10
10.7833
20
14206.5223
0
VERTEX
8
1
10
12.2166
20
14236.3459
0
VERTEX
8
1
10
13.7567
20
14268.1724
0
VERTEX
8
1
10
15.3550
20
14301.1416
0
VERTEX
8
1
10
16.9492
20
14333.8690
0
VERTEX
8
1
10
18.4734
20
14364.9998
0
VERTEX
8
1
10
19.9033
20
14394.1995
0
VERTEX
8
1
10
21.3637
20
14423.8650
0
VERTEX
8
1
10
23.0206
20
14456.8506
0
VERTEX
8
1
10
24.9916
20
14495.9949
0
VERTEX
8
1
10
27.2065
20
14539.6109
0
VERTEX
8
1
10
29.0360
20
14575.6725
0
VERTEX
8
1
10
29.7954
20
14590.8109
0
VERTEX
8
1
10
31.1213
20
14592.0223
0
VERTEX
8
1
10
32.8392
20
14592.8077
0
VERTEX
8
1
10
34.5621
20
14593.5904
0
VERTEX
8
1
10
36.2818
20
14594.3806
0
VERTEX
8
1
10
37.9990
20
14595.1657
0
VERTEX
8
1
10
39.7082
20
14595.9647
0
VERTEX
8
1
10
41.4213
20
14596.7639
0
VERTEX
8
1
10
43.1386
20
14597.5668
0
VERTEX
8
1
10
44.8473
20
14598.3655
0
VERTEX
8
1
10
46.5533
20
14599.1790
0
VERTEX
8
1
10
48.2708
20
14599.9905
0
VERTEX
8
1
10
49.9753
20
14600.7940
0
VERTEX
8
1
10
51.6760
20
14601.6058
0
VERTEX
8
1
10
53.3844
20
14602.4276
0
VERTEX
8
1
10
55.0852
20
14603.2380
0
VERTEX
8
1
10
56.7877
20
14604.0739
0
VERTEX
8
1
10
58.4910
20
14604.8996
0
VERTEX
8
1
10
60.1835
20
14605.7198
0
VERTEX
8
1
10
61.8859
20
14606.5596
0
VERTEX
8
1
10
67.6146
20
14595.0224
0
VERTEX
8
1
10
82.2032
20
14565.0688
0
VERTEX
8
1
10
102.3187
20
14523.7822
0
VERTEX
8
1
10
124.5220
20
14478.2112
0
VERTEX
8
1
10
145.3992
20
14435.3678
0
VERTEX
8
1
10
163.1684
20
14398.8938
0
VERTEX
8
1
10
178.9649
20
14366.4682
0
VERTEX
8
1
10
194.2172
20
14335.1458
0
VERTEX
8
1
10
210.2341
20
14302.2470
0
VERTEX
8
1
10
226.9999
20
14267.8098
0
VERTEX
8
1
10
243.7672
20
14233.3628
0
VERTEX
8
1
10
259.7713
20
14200.4823
0
VERTEX
8
1
10
274.8389
20
14169.5272
0
VERTEX
8
1
10
290.3370
20
14137.6948
0
VERTEX
8
1
10
307.8831
20
14101.6431
0
VERTEX
8
1
10
328.8812
20
14058.5243
0
VERTEX
8
1
10
350.8771
20
14013.3375
0
VERTEX
8
1
10
368.2626
20
13977.6262
0
VERTEX
8
1
10
375.3217
20
13963.1205
0
SEQEND
0
TEXT
8
19
62
3
10
25.0228
20
13978.8356
40
12.0000
50
-2.3677
1
11
0
POLYLINE
8
8
62
8
66
1
6
CONTINUOUS
0
VERTEX
8
8
10
161.2653
20
14334.2755
0
VERTEX
8
8
10
160.8478
20
14324.2843
0
SEQEND
0
POLYLINE
8
8
62
8
66
1
6
CONTINUOUS
0
VERTEX
8
8
10
166.0522
20
14329.0712
0
VERTEX
8
8
10
156.0609
20
14329.4886
0
SEQEND
0
ENDBLK
0
BLOCK
2
Panel12
10
0
20
0
30
0
70
0
0
POLYLINE
8
1
62
1
66
1
6
CONTINUOUS
70
1
0
VERTEX
8
1
10
24046.9800
20
0.0000
0
VERTEX
8
1
10
24017.4900
20
85.5700
0
VERTEX
8
1
10
23987.9800
20
171.1300
0
VERTEX
8
1
10
23958.4700
20
256.6900
0
VERTEX
8
1
10
23928.9500
20
342.2500
0
VERTEX
8
1
10
23899.4300
20
427.8100
0
VERTEX
8
1
10
23873.6300
20
502.5901
0
VERTEX
8
1
10
23871.6188
20
502.5931
0
VERTEX
8
1
10
23865.8008
20
502.5321
0
VERTEX
8
1
10
23856.4990
20
502.3023
0
VERTEX
8
1
10
23844.0367
20
501.7988
0
VERTEX
8
1
10
23828.7369
20
500.9166
0
VERTEX
8
1
10
23810.9230
20
499.5509
0
VERTEX
8
1
10
23790.9179
20
497.5967
0
VERTEX
8
1
10
23769.0448
20
494.9491
0
VERTEX
8
1
10
23745.6270
20
491.5033
0
VERTEX
8
1
10
23720.9875
20
487.1542
0
VERTEX
8
1
10
23695.4496
20
481.7971
0
VERTEX
8
1
10
23669.3363
20
475.3270
0
VERTEX
8
1
10
23642.9709
20
467.6390
0
VERTEX
8
1
10
23616.6765
20
458.6282
0
VERTEX
8
1
10
23590.7762
20
448.1897
0
VERTEX
8
1
10
23565.5932
20
436.2186
0
VERTEX
8
1
10
23541.4507
20
422.6100
0
VERTEX
8
1
10
23518.6718
20
407.2590
0
VERTEX
8
1
10
23497.5797
20
390.0606
0
VERTEX
8
1
10
23478.4974
20
370.9100
0
VERTEX
8
1
10
23461.3794
20
349.3595
0
VERTEX
8
1
10
23446.5314
20
325.9909
0
VERTEX
8
1
10
23433.8029
20
301.1203
0
VERTEX
8
1
10
23423.0432
20
275.0638
0
VERTEX
8
1
10
23414.1020
20
248.1374
0
VERTEX
8
1
10
23406.8285
20
220.6573
0
VERTEX
8
1
10
23401.0724
20
192.9396
0
VERTEX
8
1
10
23396.6831
20
165.3004
0
VERTEX
8
1
10
23393.5100
20
138.0558
0
VERTEX
8
1
10
23391.4026
20
111.5219
0
VERTEX
8
1
10
23390.2103
20
86.0148
0
VERTEX
8
1
10
23389.7827
20
61.8505
0
VERTEX
8
1
10
23389.9691
20
39.3453
0
VERTEX
8
1
10
23390.6191
20
18.8152
0
VERTEX
8
1
10
23391.5821
20
0.5764
0
VERTEX
8
1
10
23392.7076
20
-15.0552
0
VERTEX
8
1
10
23393.8450
20
-27.7633
0
VERTEX
8
1
10
23394.8438
20
-37.2319
0
VERTEX
8
1
10
23395.5535
20
-43.1449
0
VERTEX
8
1
10
23395.8235
20
-45.1861
0
VERTEX
8
1
10
23420.0749
20
-43.7084
0
VERTEX
8
1
10
23487.2346
20
-39.5053
0
VERTEX
8
1
10
23551.8276
20
-35.3400
0
VERTEX
8
1
10
23613.8215
20
-31.2428
0
VERTEX
8
1
10
23673.1328
20
-27.2244
0
VERTEX
8
1
10
23729.7339
20
-23.3145
0
VERTEX
8
1
10
23783.5697
20
-19.5129
0
VERTEX
8
1
10
23834.6110
20
-15.8483
0
VERTEX
8
1
10
23882.8253
20
-12.3293
0
VERTEX
8
1
10
23928.1582
20
-8.9740
0
VERTEX
8
1
10
23970.6369
20
-5.7887
0
VERTEX
8
1
10
24010.2329
20
-2.7995
0
VERTEX
8
1
10
24046.9800
20
0.0000
0
SEQEND
0
TEXT
8
19
62
3
10
24034.8703
20
1.1645
40
12.0000
50
3.9696
1
T2
0
ENDBLK
0
BLOCK
2
Panel13
10
0
20
0
30
0
70
0
0
POLYLINE
8
1
62
1
66
1
6
CONTINUOUS
70
1
0
VERTEX
8
1
10
24046.9800
20
0.0000
0
VERTEX
8
1
10
24017.4900
20
85.5700
0
VERTEX
8
1
10
23987.9800
20
171.1300
0
VERTEX
8
1
10
23958.4700
20
256.6900
0
VERTEX
8
1
10
23928.9500
20
342.2500
0
VERTEX
8
1
10
23900.1400
20
425.7400
0
VERTEX
8
1
10
23898.4367
20
425.7466
0
VERTEX
8
1
10
23893.5145
20
425.7079
0
VERTEX
8
1
10
23885.6550
20
425.5366
0
VERTEX
8
1
10
23875.1399
20
425.1451
0
VERTEX
8
1
10
23862.2508
20
424.4461
0
VERTEX
8
1
10
23847.2692
20
423.3520
0
VERTEX
8
1
10
23830.4767
20
421.7754
0
VERTEX
8
1
10
23812.1550
20
419.6289
0
VERTEX
8
1
10
23792.5857
20
416.8249
0
VERTEX
8
1
10
23772.0504
20
413.2761
0
VERTEX
8
1
10
23750.8306
20
408.8949
0
VERTEX
8
1
10
23729.2081
20
403.5940
0
VERTEX
8
1
10
23707.4643
20
397.2858
0
VERTEX
8
1
10
23685.8810
20
389.8830
0
VERTEX
8
1
10
23664.7397
20
381.2979
0
VERTEX
8
1
10
23644.3220
20
371.4433
0
VERTEX
8
1
10
23624.9095
20
360.2316
0
VERTEX
8
1
10
23606.7838
20
347.5753
0
VERTEX
8
1
10
23590.2266
20
333.3871
0
VERTEX
8
1
10
23575.5195
20
317.5795
0
VERTEX
8
1
10
23562.3982
20
299.3705
0
VERTEX
8
1
10
23551.4272
20
279.5834
0
VERTEX
8
1
10
23542.4468
20
258.4897
0
VERTEX
8
1
10
23535.2973
20
236.3611
0
VERTEX
8
1
10
23529.8188
20
213.4692
0
VERTEX
8
1
10
23525.8517
20
190.0856
0
VERTEX
8
1
10
23523.2360
20
166.4820
0
VERTEX
8
1
10
23521.8122
20
142.9300
0
VERTEX
8
1
10
23521.4203
20
119.7012
0
VERTEX
8
1
10
23521.9007
20
97.0673
0
VERTEX
8
1
10
23523.0936
20
75.2998
0
VERTEX
8
1
10
23524.8392
20
54.6704
0
VERTEX
8
1
10
23526.9778
20
35.4508
0
VERTEX
8
1
10
23529.3495
20
17.9124
0
VERTEX
8
1
10
23531.7947
20
2.3271
0
VERTEX
8
1
10
23534.1536
20
-11.0337
0
VERTEX
8
1
10
23536.2664
20
-21.8982
0
VERTEX
8
1
10
23537.9733
20
-29.9949
0
VERTEX
8
1
10
23539.1146
20
-35.0521
0
VERTEX
8
1
10
23539.5306
20
-36.7982
0
VERTEX
8
1
10
23551.8793
20
-35.9788
0
VERTEX
8
1
10
23613.8651
20
-31.7923
0
VERTEX
8
1
10
23673.1707
20
-27.6898
0
VERTEX
8
1
10
23729.7698
20
-23.7011
0
VERTEX
8
1
10
23783.6062
20
-19.8261
0
VERTEX
8
1
10
23834.6406
20
-16.0941
0
VERTEX
8
1
10
23882.8494
20
-12.5135
0
VERTEX
8
1
10
23928.1784
20
-9.1028
0
VERTEX
8
1
10
23970.6437
20
-5.8684
0
VERTEX
8
1
10
24010.2372
20
-2.8361
0
VERTEX
8
1
10
24046.9800
20
0.0000
0
SEQEND
0
TEXT
8
19
62
3
10
24034.8668
20
1.1268
40
12.0000
50
4.1476
1
T3
0
ENDBLK
0
BLOCK
2
Panel14
10
0
20
0
30
0
70
0
0
POLYLINE
8
1
62
1
66
1
6
CONTINUOUS
70
1
0
VERTEX
8
1
10
16760.9600
20
422.2700
0
VERTEX
8
1
10
16823.4408
20
411.6147
0
VERTEX
8
1
10
16889.6094
20
400.2115
0
VERTEX
8
1
10
16959.4186
20
388.1400
0
VERTEX
8
1
10
17032.8219
20
375.4294
0
VERTEX
8
1
10
17109.7722
20
362.1493
0
VERTEX
8
1
10
17190.2126
20
348.3293
0
VERTEX
8
1
10
17274.1062
20
334.0386
0
VERTEX
8
1
10
17361.3960
20
319.3170
0
VERTEX
8
1
10
17452.0353
20
304.2238
0
VERTEX
8
1
10
17504.8434
20
295.5508
0
VERTEX
8
1
10
17505.9369
20
297.0833
0
VERTEX
8
1
10
17509.0908
20
301.5630
0
VERTEX
8
1
10
17514.1152
20
308.8126
0
VERTEX
8
1
10
17520.8199
20
318.6553
0
VERTEX
8
1
10
17529.0150
20
330.9140
0
VERTEX
8
1
10
17538.5105
20
345.4117
0
VERTEX
8
1
10
17549.1164
20
361.9713
0
VERTEX
8
1
10
17560.6427
20
380.4159
0
VERTEX
8
1
10
17572.8994
20
400.5683
0
VERTEX
8
1
10
17585.6965
20
422.2517
0
VERTEX
8
1
10
17598.8440
20
445.2890
0
VERTEX
8
1
10
17612.1520
20
469.5031
0
VERTEX
8
1
10
17625.4304
20
494.7170
0
VERTEX
8
1
10
17638.4892
20
520.7537
0
VERTEX
8
1
10
17651.1384
20
547.4362
0
VERTEX
8
1
10
17663.1880
20
574.5875
0
VERTEX
8
1
10
17674.4481
20
602.0305
0
VERTEX
8
1
10
17684.7286
20
629.5882
0
VERTEX
8
1
10
17693.8396
20
657.0836
0
VERTEX
8
1
10
17701.5909
20
684.3397
0
VERTEX
8
1
10
17708.5478
20
714.7866
0
VERTEX
8
1
10
17713.5249
20
744.6491
0
VERTEX
8
1
10
17716.5375
20
773.8791
0
VERTEX
8
1
10
17717.6006
20
802.4282
0
VERTEX
8
1
10
17716.7295
20
830.2482
0
VERTEX
8
1
10
17713.9392
20
857.2909
0
VERTEX
8
1
10
17709.2449
20
883.5078
0
VERTEX
8
1
10
17702.6618
20
908.8507
0
VERTEX
8
1
10
17694.2050
20
933.2714
0
VERTEX
8
1
10
17683.8896
20
956.7216
0
VERTEX
8
1
10
17671.7309
20
979.1530
0
VERTEX
8
1
10
17657.7439
20
1000.5173
0
VERTEX
8
1
10
17641.9439
20
1020.7662
0
VERTEX
8
1
10
17624.3459
20
1039.8515
0
VERTEX
8
1
10
17604.9652
20
1057.7248
0
VERTEX
8
1
10
17583.8168
20
1074.3380
0
VERTEX
8
1
10
17560.9159
20
1089.6426
0
VERTEX
8
1
10
17536.2777
20
1103.5905
0
VERTEX
8
1
10
17509.9173
20
1116.1333
0
VERTEX
8
1
10
17481.8498
20
1127.2228
0
VERTEX
8
1
10
17453.7111
20
1136.3753
0
VERTEX
8
1
10
17424.3396
20
1144.2629
0
VERTEX
8
1
10
17394.0248
20
1150.9718
0
VERTEX
8
1
10
17363.0560
20
1156.5878
0
VERTEX
8
1
10
17331.7225
20
1161.1971
0
VERTEX
8
1
10
17300.3136
20
1164.8856
0
VERTEX
8
1
10
17269.1187
20
1167.7394
0
VERTEX
8
1
10
17238.4270
20
1169.8444
0
VERTEX
8
1
10
17208.5281
20
1171.2867
0
VERTEX
8
1
10
17179.7110
20
1172.1523
0
VERTEX
8
1
10
17152.2653
20
1172.5272
0
VERTEX
8
1
10
17126.4802
20
1172.4975
0
VERTEX
8
1
10
17102.6451
20
1172.1491
0
VERTEX
8
1
10
17081.0493
20
1171.5681
0
VERTEX
8
1
10
17061.9821
20
1170.8405
0
VERTEX
8
1
10
17045.7328
20
1170.0523
0
VERTEX
8
1
10
17032.5909
20
1169.2895
0
VERTEX
8
1
10
17022.8456
20
1168.6382
0
VERTEX
8
1
10
17016.7862
20
1168.1843
0
VERTEX
8
1
10
17014.7021
20
1168.0139
0
VERTEX
8
1
10
17003.2726
20
1134.4666
0
VERTEX
8
1
10
16972.9727
20
1045.4996
0
VERTEX
8
1
10
16942.6926
20
956.5222
0
VERTEX
8
1
10
16912.4219
20
867.5248
0
VERTEX
8
1
10
16882.1409
20
778.5176
0
VERTEX
8
1
10
16851.8689
20
689.4800
0
VERTEX
8
1
10
16821.5767
20
600.4330
0
VERTEX
8
1
10
16791.2838
20
511.3661
0
VERTEX
8
1
10
16760.9600
20
422.2700
0
SEQEND
0
TEXT
8
19
62
3
10
16800.7278
20
417.5244
40
12.0000
50
-9.6674
1
C2
0
ENDBLK
0
BLOCK
2
Panel15
10
0
20
0
30
0
70
0
0
POLYLINE
8
1
62
1
66
1
6
CONTINUOUS
70
1
0
VERTEX
8
1
10
16760.9600
20
422.2700
0
VERTEX
8
1
10
16823.4389
20
411.6168
0
VERTEX
8
1
10
16889.6083
20
400.2152
0
VERTEX
8
1
10
16959.4214
20
388.1446
0
VERTEX
8
1
10
17032.8217
20
375.4346
0
VERTEX
8
1
10
17109.7722
20
362.1545
0
VERTEX
8
1
10
17190.2164
20
348.3338
0
VERTEX
8
1
10
17274.1074
20
334.0419
0
VERTEX
8
1
10
17321.3485
20
326.0700
0
VERTEX
8
1
10
17322.2280
20
327.3130
0
VERTEX
8
1
10
17324.7649
20
330.9455
0
VERTEX
8
1
10
17328.8068
20
336.8223
0
VERTEX
8
1
10
17334.2014
20
344.7986
0
VERTEX
8
1
10
17340.7964
20
354.7293
0
VERTEX
8
1
10
17348.4393
20
366.4694
0
VERTEX
8
1
10
17356.9780
20
379.8740
0
VERTEX
8
1
10
17366.2600
20
394.7980
0
VERTEX
8
1
10
17376.1329
20
411.0965
0
VERTEX
8
1
10
17386.4445
20
428.6245
0
VERTEX
8
1
10
17397.0424
20
447.2369
0
VERTEX
8
1
10
17407.7743
20
466.7888
0
VERTEX
8
1
10
17418.4878
20
487.1352
0
VERTEX
8
1
10
17429.0305
20
508.1312
0
VERTEX
8
1
10
17439.2502
20
529.6316
0
VERTEX
8
1
10
17448.9944
20
551.4915
0
VERTEX
8
1
10
17458.1109
20
573.5659
0
VERTEX
8
1
10
17466.4473
20
595.7099
0
VERTEX
8
1
10
17473.8512
20
617.7784
0
VERTEX
8
1
10
17480.1704
20
639.6265
0
VERTEX
8
1
10
17485.8756
20
664.0119
0
VERTEX
8
1
10
17489.9947
20
687.8955
0
VERTEX
8
1
10
17492.5364
20
711.2468
0
VERTEX
8
1
10
17493.5092
20
734.0352
0
VERTEX
8
1
10
17492.9218
20
756.2300
0
VERTEX
8
1
10
17490.7829
20
777.8006
0
VERTEX
8
1
10
17487.1012
20
798.7164
0
VERTEX
8
1
10
17481.8852
20
818.9468
0
VERTEX
8
1
10
17475.1437
20
838.4612
0
VERTEX
8
1
10
17466.8854
20
857.2289
0
VERTEX
8
1
10
17457.1187
20
875.2193
0
VERTEX
8
1
10
17445.8525
20
892.4019
0
VERTEX
8
1
10
17433.0954
20
908.7459
0
VERTEX
8
1
10
17418.8560
20
924.2209
0
VERTEX
8
1
10
17403.1430
20
938.7961
0
VERTEX
8
1
10
17385.9650
20
952.4409
0
VERTEX
8
1
10
17367.3308
20
965.1248
0
VERTEX
8
1
10
17347.2488
20
976.8170
0
VERTEX
8
1
10
17325.7279
20
987.4871
0
VERTEX
8
1
10
17302.7767
20
997.1044
0
VERTEX
8
1
10
17282.6244
20
1004.2923
0
VERTEX
8
1
10
17261.6845
20
1010.7672
0
VERTEX
8
1
10
17240.1538
20
1016.5662
0
VERTEX
8
1
10
17218.2292
20
1021.7266
0
VERTEX
8
1
10
17196.1078
20
1026.2857
0
VERTEX
8
1
10
17173.9864
20
1030.2807
0
VERTEX
8
1
10
17152.0620
20
1033.7488
0
VERTEX
8
1
10
17130.5314
20
1036.7273
0
VERTEX
8
1
10
17109.5916
20
1039.2535
0
VERTEX
8
1
10
17089.4395
20
1041.3646
0
VERTEX
8
1
10
17070.2720
20
1043.0979
0
VERTEX
8
1
10
17052.2862
20
1044.4905
0
VERTEX
8
1
10
17035.6788
20
1045.5798
0
VERTEX
8
1
10
17020.6468
20
1046.4031
0
VERTEX
8
1
10
17007.3872
20
1046.9974
0
VERTEX
8
1
10
16996.0968
20
1047.4002
0
VERTEX
8
1
10
16986.9726
20
1047.6486
0
VERTEX
8
1
10
16980.2115
20
1047.7799
0
VERTEX
8
1
10
16976.0104
20
1047.8314
0
VERTEX
8
1
10
16974.5663
20
1047.8403
0
VERTEX
8
1
10
16943.3023
20
956.3141
0
VERTEX
8
1
10
16912.9300
20
867.3512
0
VERTEX
8
1
10
16882.5474
20
778.3786
0
VERTEX
8
1
10
16852.1738
20
689.3758
0
VERTEX
8
1
10
16821.7800
20
600.3635
0
VERTEX
8
1
10
16791.3854
20
511.3313
0
VERTEX
8
1
10
16760.9600
20
422.2700
0
SEQEND
0
TEXT
8
19
62
3
10
16800.7217
20
417.4735
40
12.0000
50
-9.7408
1
C3
0
ENDBLK
0
BLOCK
2
Panel16
10
0
20
0
30
0
70
0
0
POLYLINE
8
1
62
1
66
1
6
CONTINUOUS
70
1
0
VERTEX
8
1
10
16760.9600
20
422.2700
0
VERTEX
8
1
10
16823.4406
20
411.6182
0
VERTEX
8
1
10
16889.6145
20
400.2175
0
VERTEX
8
1
10
16959.4249
20
388.1475
0
VERTEX
8
1
10
17032.8253
20
375.4374
0
VERTEX
8
1
10
17109.7691
20
362.1567
0
VERTEX
8
1
10
17177.0880
20
350.5952
0
VERTEX
8
1
10
17177.7677
20
351.5604
0
VERTEX
8
1
10
17179.7283
20
354.3803
0
VERTEX
8
1
10
17182.8523
20
358.9416
0
VERTEX
8
1
10
17187.0220
20
365.1309
0
VERTEX
8
1
10
17192.1200
20
372.8347
0
VERTEX
8
1
10
17198.0285
20
381.9397
0
VERTEX
8
1
10
17204.6301
20
392.3324
0
VERTEX
8
1
10
17211.8071
20
403.8995
0
VERTEX
8
1
10
17219.4420
20
416.5275
0
VERTEX
8
1
10
17227.4171
20
430.1032
0
VERTEX
8
1
10
17235.6149
20
444.5130
0
VERTEX
8
1
10
17243.9178
20
459.6435
0
VERTEX
8
1
10
17252.2082
20
475.3814
0
VERTEX
8
1
10
17260.3685
20
491.6133
0
VERTEX
8
1
10
17268.2812
20
508.2257
0
VERTEX
8
1
10
17275.8286
20
525.1053
0
VERTEX
8
1
10
17282.8932
20
542.1387
0
VERTEX
8
1
10
17289.3573
20
559.2125
0
VERTEX
8
1
10
17295.1035
20
576.2132
0
VERTEX
8
1
10
17300.0140
20
593.0274
0
VERTEX
8
1
10
17304.4570
20
611.7723
0
VERTEX
8
1
10
17307.6768
20
630.1119
0
VERTEX
8
1
10
17309.6791
20
648.0273
0
VERTEX
8
1
10
17310.4695
20
665.4999
0
VERTEX
8
1
10
17310.0534
20
682.5106
0
VERTEX
8
1
10
17308.4366
20
699.0408
0
VERTEX
8
1
10
17305.6245
20
715.0716
0
VERTEX
8
1
10
17301.6227
20
730.5842
0
VERTEX
8
1
10
17296.4368
20
745.5598
0
VERTEX
8
1
10
17290.0723
20
759.9796
0
VERTEX
8
1
10
17282.5348
20
773.8246
0
VERTEX
8
1
10
17273.8300
20
787.0763
0
VERTEX
8
1
10
17263.9632
20
799.7156
0
VERTEX
8
1
10
17252.9402
20
811.7238
0
VERTEX
8
1
10
17240.7664
20
823.0821
0
VERTEX
8
1
10
17227.4475
20
833.7717
0
VERTEX
8
1
10
17212.9890
20
843.7737
0
VERTEX
8
1
10
17197.3965
20
853.0693
0
VERTEX
8
1
10
17180.6755
20
861.6397
0
VERTEX
8
1
10
17162.8317
20
869.4662
0
VERTEX
8
1
10
17148.3671
20
874.9727
0
VERTEX
8
1
10
17133.3782
20
880.0443
0
VERTEX
8
1
10
17118.0020
20
884.6975
0
VERTEX
8
1
10
17102.3754
20
888.9488
0
VERTEX
8
1
10
17086.6351
20
892.8147
0
VERTEX
8
1
10
17070.9182
20
896.3116
0
VERTEX
8
1
10
17055.3616
20
899.4561
0
VERTEX
8
1
10
17040.1020
20
902.2647
0
VERTEX
8
1
10
17025.2766
20
904.7537
0
VERTEX
8
1
10
17011.0220
20
906.9399
0
VERTEX
8
1
10
16997.4753
20
908.8395
0
VERTEX
8
1
10
16984.7733
20
910.4692
0
VERTEX
8
1
10
16973.0530
20
911.8453
0
VERTEX
8
1
10
16962.4512
20
912.9845
0
VERTEX
8
1
10
16953.1049
20
913.9032
0
VERTEX
8
1
10
16945.1509
20
914.6178
0
VERTEX
8
1
10
16938.7262
20
915.1450
0
VERTEX
8
1
10
16933.9676
20
915.5011
0
VERTEX
8
1
10
16931.0120
20
915.7026
0
VERTEX
8
1
10
16929.9964
20
915.7662
0
VERTEX
8
1
10
16913.3626
20
867.2031
0
VERTEX
8
1
10
16882.8935
20
778.2601
0
VERTEX
8
1
10
16852.4334
20
689.2869
0
VERTEX
8
1
10
16821.9530
20
600.3042
0
VERTEX
8
1
10
16791.4720
20
511.3016
0
VERTEX
8
1
10
16760.9600
20
422.2700
0
SEQEND
0
TEXT
8
19
62
3
10
16800.7190
20
417.4513
40
12.0000
50
-9.7729
1
C4
0
ENDBLK
0
BLOCK
2
Panel17
10
0
20
0
30
0
70
0
0
POLYLINE
8
1
62
1
66
1
6
CONTINUOUS
70
1
0
VERTEX
8
1
10
19789.9500
20
12813.7500
0
VERTEX
8
1
10
19774.5498
20
12716.9389
0
VERTEX
8
1
10
19759.2397
20
12620.1084
0
VERTEX
8
1
10
19744.0197
20
12523.2583
0
VERTEX
8
1
10
19728.8597
20
12426.3983
0
VERTEX
8
1
10
19713.7597
20
12329.5182
0
VERTEX
8
1
10
19698.7097
20
12232.6382
0
VERTEX
8
1
10
19683.6897
20
12135.7480
0
VERTEX
8
1
10
19668.6896
20
12038.8478
0
VERTEX
8
1
10
19653.6996
20
11941.9475
0
VERTEX
8
1
10
19641.6096
20
11863.7773
0
VERTEX
8
1
10
19642.3958
20
11863.3938
0
VERTEX
8
1
10
19644.6957
20
11862.3001
0
VERTEX
8
1
10
19648.4214
20
11860.5815
0
VERTEX
8
1
10
19653.4847
20
11858.3234
0
VERTEX
8
1
10
19659.7976
20
11855.6111
0
VERTEX
8
1
10
19667.2722
20
11852.5300
0
VERTEX
8
1
10
19675.8204
20
11849.1654
0
VERTEX
8
1
10
19685.3541
20
11845.6027
0
VERTEX
8
1
10
19695.7854
20
11841.9271
0
VERTEX
8
1
10
19707.0262
20
11838.2240
0
VERTEX
8
1
10
19718.9884
20
11834.5788
0
VERTEX
8
1
10
19731.5842
20
11831.0768
0
VERTEX
8
1
10
19744.7253
20
11827.8033
0
VERTEX
8
1
10
19758.3239
20
11824.8437
0
VERTEX
8
1
10
19772.2918
20
11822.2833
0
VERTEX
8
1
10
19786.5411
20
11820.2074
0
VERTEX
8
1
10
19800.9838
20
11818.7015
0
VERTEX
8
1
10
19815.5317
20
11817.8507
0
VERTEX
8
1
10
19830.0969
20
11817.7405
0
VERTEX
8
1
10
19844.5913
20
11818.4562
0
VERTEX
8
1
10
19867.1549
20
11821.3779
0
VERTEX
8
1
10
19889.2487
20
11826.3333
0
VERTEX
8
1
10
19910.7984
20
11833.0862
0
VERTEX
8
1
10
19931.7296
20
11841.4007
0
VERTEX
8
1
10
19951.9680
20
11851.0404
0
VERTEX
8
1
10
19971.4393
20
11861.7694
0
VERTEX
8
1
10
19990.0692
20
11873.3515
0
VERTEX
8
1
10
20007.7833
20
11885.5507
0
VERTEX
8
1
10
20024.5074
20
11898.1307
0
VERTEX
8
1
10
20040.1671
20
11910.8556
0
VERTEX
8
1
10
20054.6882
20
11923.4891
0
VERTEX
8
1
10
20067.9962
20
11935.7953
0
VERTEX
8
1
10
20080.0169
20
11947.5379
0
VERTEX
8
1
10
20090.6760
20
11958.4808
0
VERTEX
8
1
10
20099.8991
20
11968.3881
0
VERTEX
8
1
10
20107.6119
20
11977.0234
0
VERTEX
8
1
10
20113.7401
20
11984.1508
0
VERTEX
8
1
10
20118.2094
20
11989.5342
0
VERTEX
8
1
10
20120.9455
20
11992.9373
0
VERTEX
8
1
10
20121.8741
20
11994.1241
0
VERTEX
8
1
10
20116.0301
20
12010.4131
0
VERTEX
8
1
10
20083.5726
20
12100.8466
0
VERTEX
8
1
10
20051.1152
20
12191.2802
0
VERTEX
8
1
10
20018.6580
20
12281.7037
0
VERTEX
8
1
10
19986.1906
20
12372.1368
0
VERTEX
8
1
10
19953.7231
20
12462.5700
0
VERTEX
8
1
10
19921.2560
20
12552.9931
0
VERTEX
8
1
10
19888.7689
20
12643.4156
0
VERTEX
8
1
10
19856.2818
20
12733.8380
0
VERTEX
8
1
10
19823.7847
20
12824.2601
0
VERTEX
8
1
10
19789.9500
20
12813.7500
0
SEQEND
0
TEXT
8
19
62
3
10
19817.3676
20
12800.7054
40
12.0000
50
-70.2475
1
H2
0
ENDBLK
0
BLOCK
2
Panel18
10
0
20
0
30
0
70
0
0
POLYLINE
8
1
62
1
66
1
6
CONTINUOUS
70
1
0
VERTEX
8
1
10
19789.9500
20
12813.7500
0
VERTEX
8
1
10
19774.5499
20
12716.9392
0
VERTEX
8
1
10
19759.2398
20
12620.1090
0
VERTEX
8
1
10
19744.0198
20
12523.2589
0
VERTEX
8
1
10
19728.8598
20
12426.3989
0
VERTEX
8
1
10
19713.7598
20
12329.5189
0
VERTEX
8
1
10
19698.7098
20
12232.6387
0
VERTEX
8
1
10
19683.6897
20
12135.7484
0
VERTEX
8
1
10
19677.3397
20
12094.7082
0
VERTEX
8
1
10
19677.9475
20
12094.3995
0
VERTEX
8
1
10
19679.7256
20
12093.5190
0
VERTEX
8
1
10
19682.6059
20
12092.1347
0
VERTEX
8
1
10
19686.5202
20
12090.3147
0
VERTEX
8
1
10
19691.4005
20
12088.1270
0
VERTEX
8
1
10
19697.1787
20
12085.6398
0
VERTEX
8
1
10
19703.7867
20
12082.9212
0
VERTEX
8
1
10
19711.1564
20
12080.0393
0
VERTEX
8
1
10
19719.2198
20
12077.0621
0
VERTEX
8
1
10
19727.9087
20
12074.0577
0
VERTEX
8
1
10
19737.1551
20
12071.0943
0
VERTEX
8
1
10
19746.8908
20
12068.2399
0
VERTEX
8
1
10
19757.0479
20
12065.5626
0
VERTEX
8
1
10
19767.5581
20
12063.1305
0
VERTEX
8
1
10
19778.3534
20
12061.0117
0
VERTEX
8
1
10
19789.3657
20
12059.2743
0
VERTEX
8
1
10
19800.5270
20
12057.9863
0
VERTEX
8
1
10
19811.7690
20
12057.2159
0
VERTEX
8
1
10
19823.0239
20
12057.0312
0
VERTEX
8
1
10
19834.2234
20
12057.5002
0
VERTEX
8
1
10
19851.7376
20
12059.6744
0
VERTEX
8
1
10
19868.8842
20
12063.4756
0
VERTEX
8
1
10
19885.6057
20
12068.7159
0
VERTEX
8
1
10
19901.8447
20
12075.2071
0
VERTEX
8
1
10
19917.5440
20
12082.7613
0
VERTEX
8
1
10
19932.6461
20
12091.1907
0
VERTEX
8
1
10
19947.0937
20
12100.3070
0
VERTEX
8
1
10
19960.8294
20
12109.9224
0
VERTEX
8
1
10
19973.7959
20
12119.8489
0
VERTEX
8
1
10
19985.9358
20
12129.8985
0
VERTEX
8
1
10
19997.1917
20
12139.8832
0
VERTEX
8
1
10
20007.5064
20
12149.6150
0
VERTEX
8
1
10
20016.8224
20
12158.9059
0
VERTEX
8
1
10
20025.0823
20
12167.5680
0
VERTEX
8
1
10
20032.2289
20
12175.4132
0
VERTEX
8
1
10
20038.2047
20
12182.2535
0
VERTEX
8
1
10
20042.9524
20
12187.9010
0
VERTEX
8
1
10
20046.4146
20
12192.1677
0
VERTEX
8
1
10
20048.5340
20
12194.8656
0
VERTEX
8
1
10
20049.2532
20
12195.8066
0
VERTEX
8
1
10
20018.4732
20
12281.6373
0
VERTEX
8
1
10
19986.0365
20
12372.0815
0
VERTEX
8
1
10
19953.5999
20
12462.5257
0
VERTEX
8
1
10
19921.1636
20
12552.9599
0
VERTEX
8
1
10
19888.7073
20
12643.3934
0
VERTEX
8
1
10
19856.2510
20
12733.8269
0
VERTEX
8
1
10
19823.7847
20
12824.2601
0
VERTEX
8
1
10
19789.9500
20
12813.7500
0
SEQEND
0
TEXT
8
19
62
3
10
19817.3609
20
12800.7073
40
12.0000
50
-70.2637
1
H3
0
ENDBLK
0
ENDSEC
0
SECTION
2
ENTITIES
0
INSERT
2
Panel1
8
0
10
0
20
0
30
0
0
INSERT
2
Panel2
8
0
10
0
20
0
30
0
0
INSERT
2
Panel3
8
0
10
0
20
0
30
0
0
INSERT
2
Panel4
8
0
10
0
20
0
30
0
0
INSERT
2
Panel5
8
0
10
0
20
0
30
0
0
INSERT
2
Panel6
8
0
10
0
20
0
30
0
0
INSERT
2
Panel7
8
0
10
0
20
0
30
0
0
INSERT
2
Panel8
8
0
10
0
20
0
30
0
0
INSERT
2
Panel9
8
0
10
0
20
0
30
0
0
INSERT
2
Panel10
8
0
10
0
20
0
30
0
0
INSERT
2
Panel11
8
0
10
0
20
0
30
0
0
INSERT
2
Panel12
8
0
10
0
20
0
30
0
0
INSERT
2
Panel13
8
0
10
0
20
0
30
0
0
INSERT
2
Panel14
8
0
10
0
20
0
30
0
0
INSERT
2
Panel15
8
0
10
0
20
0
30
0
0
INSERT
2
Panel16
8
0
10
0
20
0
30
0
0
INSERT
2
Panel17
8
0
10
0
20
0
30
0
0
INSERT
2
Panel18
8
0
10
0
20
0
30
0
0
ENDSEC
0
EOF
