999
6000712-Cut files.dxf AzureProject DXFWriter
0
SECTION
2
HEADER
0
ENDSEC
0
SECTION
2
TABLES
0
TABLE
2
LAYER
70
16
0
LAYER
2
1
70
64
62
1
6
CONTINUOUS
0
LAYER
2
2
70
64
62
1
6
CONTINUOUS
0
ENDTAB
0
ENDSEC
0
SECTION
2
BLOCKS
0
BLOCK
5
1
100
AcDbEntity
8
1
100
AcDbBlockBegin
10
0
20
0
30
0
2
Panel1
70
0
3
Panel1
0
POLYLINE
8
1
62
0
66
1
6
CONTINUOUS
0
VERTEX
8
1
10
0.0000
20
0.0000
0
VERTEX
8
1
10
14.9049
20
1.6868
0
SEQEND
0
POLYLINE
8
1
62
0
66
1
6
CONTINUOUS
0
VERTEX
8
1
10
14.9049
20
1.6868
0
VERTEX
8
1
10
18.2972
20
101.8512
0
VERTEX
8
1
10
21.7292
20
202.9250
0
VERTEX
8
1
10
25.1771
20
303.5482
0
VERTEX
8
1
10
28.6160
20
404.1614
0
VERTEX
8
1
10
32.0784
20
504.7839
0
VERTEX
8
1
10
35.5436
20
605.4060
0
VERTEX
8
1
10
38.9991
20
706.0280
0
VERTEX
8
1
10
42.4473
20
806.6499
0
VERTEX
8
1
10
45.8797
20
907.2616
0
VERTEX
8
1
10
49.3097
20
1007.8831
0
VERTEX
8
1
10
52.7191
20
1108.5045
0
VERTEX
8
1
10
56.1278
20
1209.1256
0
VERTEX
8
1
10
59.5081
20
1309.7569
0
VERTEX
8
1
10
62.8783
20
1410.3780
0
VERTEX
8
1
10
66.2358
20
1510.9990
0
VERTEX
8
1
10
69.6990
20
1611.6177
0
VERTEX
8
1
10
72.6514
20
1712.2672
0
VERTEX
8
1
10
76.2049
20
1812.8741
0
VERTEX
8
1
10
79.4132
20
1913.4971
0
VERTEX
8
1
10
82.6604
20
2014.1290
0
VERTEX
8
1
10
85.8959
20
2114.7510
0
VERTEX
8
1
10
89.1139
20
2215.3930
0
VERTEX
8
1
10
92.3140
20
2315.9953
0
VERTEX
8
1
10
95.4880
20
2416.6179
0
VERTEX
8
1
10
98.6846
20
2517.9400
0
VERTEX
8
1
10
101.6887
20
2613.9650
0
VERTEX
8
1
10
104.9481
20
2718.5362
0
VERTEX
8
1
10
105.7270
20
2743.5242
0
SEQEND
0
POLYLINE
8
1
62
0
66
1
6
CONTINUOUS
0
VERTEX
8
1
10
105.7270
20
2743.5242
0
VERTEX
8
1
10
-300.3411
20
2754.5700
0
VERTEX
8
1
10
-315.4877
20
2754.9821
0
SEQEND
0
POLYLINE
8
1
62
0
66
1
6
CONTINUOUS
0
VERTEX
8
1
10
-315.4877
20
2754.9821
0
VERTEX
8
1
10
-312.3522
20
2727.7654
0
VERTEX
8
1
10
-300.7091
20
2626.7039
0
VERTEX
8
1
10
-289.0647
20
2525.6522
0
VERTEX
8
1
10
-277.4098
20
2424.5907
0
VERTEX
8
1
10
-265.7666
20
2323.5408
0
VERTEX
8
1
10
-254.1100
20
2222.4886
0
VERTEX
8
1
10
-242.4693
20
2121.4293
0
VERTEX
8
1
10
-230.8284
20
2020.3774
0
VERTEX
8
1
10
-219.1964
20
1919.3331
0
VERTEX
8
1
10
-207.5612
20
1818.2787
0
VERTEX
8
1
10
-195.9442
20
1717.2368
0
VERTEX
8
1
10
-184.3211
20
1616.1824
0
VERTEX
8
1
10
-172.7096
20
1515.1444
0
VERTEX
8
1
10
-161.0911
20
1414.0993
0
VERTEX
8
1
10
-149.4902
20
1313.0528
0
VERTEX
8
1
10
-137.8985
20
1212.0168
0
VERTEX
8
1
10
-126.3207
20
1110.9860
0
VERTEX
8
1
10
-114.7476
20
1009.9475
0
VERTEX
8
1
10
-103.2066
20
908.9289
0
VERTEX
8
1
10
-91.6742
20
807.9054
0
VERTEX
8
1
10
-80.1713
20
706.9007
0
VERTEX
8
1
10
-68.6776
20
605.9004
0
VERTEX
8
1
10
-57.2084
20
504.8991
0
VERTEX
8
1
10
-45.7467
20
403.9083
0
VERTEX
8
1
10
-34.2954
20
302.9269
0
VERTEX
8
1
10
-22.8630
20
201.9426
0
VERTEX
8
1
10
-11.4264
20
100.9674
0
VERTEX
8
1
10
0.0000
20
0.0000
0
SEQEND
0
POLYLINE
8
2
62
1
66
1
6
CONTINUOUS
0
VERTEX
8
2
10
104.9481
20
2718.5362
0
VERTEX
8
2
10
-297.4507
20
2729.4822
0
SEQEND
0
POLYLINE
8
2
62
1
66
1
6
CONTINUOUS
0
VERTEX
8
2
10
14.9049
20
1.6868
0
VERTEX
8
2
10
3.4783
20
102.6555
0
VERTEX
8
2
10
-7.9583
20
203.6299
0
VERTEX
8
2
10
-19.3909
20
304.6171
0
VERTEX
8
2
10
-30.8424
20
405.5998
0
VERTEX
8
2
10
-42.3041
20
506.5915
0
VERTEX
8
2
10
-53.7738
20
607.5965
0
VERTEX
8
2
10
-65.2676
20
708.5980
0
VERTEX
8
2
10
-76.7710
20
809.6066
0
VERTEX
8
2
10
-88.3035
20
910.6316
0
VERTEX
8
2
10
-99.8451
20
1011.6544
0
VERTEX
8
2
10
-111.4183
20
1112.6938
0
VERTEX
8
2
10
-122.9963
20
1213.7265
0
VERTEX
8
2
10
-134.5881
20
1314.7637
0
VERTEX
8
2
10
-146.1892
20
1415.8128
0
VERTEX
8
2
10
-157.8077
20
1516.8570
0
VERTEX
8
2
10
-169.4194
20
1617.8963
0
VERTEX
8
2
10
-181.0423
20
1718.9501
0
VERTEX
8
2
10
-192.6596
20
1819.9945
0
VERTEX
8
2
10
-204.2948
20
1921.0486
0
VERTEX
8
2
10
-215.9270
20
2022.0940
0
VERTEX
8
2
10
-227.5678
20
2123.1457
0
VERTEX
8
2
10
-239.2088
20
2224.2075
0
VERTEX
8
2
10
-250.8652
20
2325.2577
0
VERTEX
8
2
10
-262.5085
20
2426.3092
0
VERTEX
8
2
10
-274.1633
20
2527.3693
0
VERTEX
8
2
10
-285.8077
20
2628.4206
0
VERTEX
8
2
10
-297.4507
20
2729.4822
0
VERTEX
8
2
10
-300.3411
20
2754.5700
0
SEQEND
0
TEXT
8
2
62
1
10
-2.5638
20
39.9678
40
12.0000
50
276.5328
1
1\1
0
POLYLINE
8
2
62
1
66
1
6
CONTINUOUS
0
VERTEX
8
2
10
69.3047
20
1608.3669
0
VERTEX
8
2
10
-42.8636
20
1611.0855
0
VERTEX
8
2
10
-155.5490
20
1613.8734
0
SEQEND
0
POLYLINE
8
2
62
1
66
1
6
CONTINUOUS
0
VERTEX
8
2
10
69.5867
20
1608.3541
0
VERTEX
8
2
10
59.5926
20
1608.6981
0
SEQEND
0
POLYLINE
8
2
62
1
66
1
6
CONTINUOUS
0
VERTEX
8
2
10
53.3499
20
1127.1260
0
VERTEX
8
2
10
43.3556
20
1127.4646
0
SEQEND
0
POLYLINE
8
2
62
1
66
1
6
CONTINUOUS
0
VERTEX
8
2
10
90.2998
20
2252.6754
0
VERTEX
8
2
10
80.3049
20
2252.9933
0
SEQEND
0
POLYLINE
8
2
62
1
66
1
6
CONTINUOUS
0
VERTEX
8
2
10
20.2217
20
806.1080
0
VERTEX
8
2
10
10.2851
20
804.9835
0
SEQEND
0
POLYLINE
8
2
62
1
66
1
6
CONTINUOUS
0
VERTEX
8
2
10
15.8157
20
800.5775
0
VERTEX
8
2
10
14.6912
20
810.5141
0
SEQEND
0
POLYLINE
8
2
62
1
66
1
6
CONTINUOUS
0
VERTEX
8
2
10
71.4051
20
2413.1154
0
VERTEX
8
2
10
61.4686
20
2411.9908
0
SEQEND
0
POLYLINE
8
2
62
1
66
1
6
CONTINUOUS
0
VERTEX
8
2
10
66.9991
20
2407.5848
0
VERTEX
8
2
10
65.8746
20
2417.5214
0
SEQEND
0
TEXT
8
2
62
1
10
41.1827
20
1136.8193
40
12.0000
50
-87.6595
1
R1
0
TEXT
8
2
62
1
10
78.1326
20
2262.3687
40
12.0000
50
-87.6595
1
R2
0
ENDBLK
5
1
100
AcDbBlockEnd
0
BLOCK
5
2
100
AcDbEntity
8
1
100
AcDbBlockBegin
10
0
20
0
30
0
2
Panel2
70
0
3
Panel2
0
POLYLINE
8
1
62
0
66
1
6
CONTINUOUS
0
VERTEX
8
1
10
-50.0000
20
-50.0000
0
VERTEX
8
1
10
-35.4627
20
-46.3031
0
SEQEND
0
POLYLINE
8
1
62
0
66
1
6
CONTINUOUS
0
VERTEX
8
1
10
-35.4627
20
-46.3031
0
VERTEX
8
1
10
-46.7024
20
54.6866
0
VERTEX
8
1
10
-57.9443
20
155.6805
0
VERTEX
8
1
10
-69.1764
20
256.6901
0
VERTEX
8
1
10
-80.4077
20
357.6969
0
VERTEX
8
1
10
-91.6239
20
458.7124
0
VERTEX
8
1
10
-102.8256
20
559.7474
0
VERTEX
8
1
10
-114.0159
20
660.7830
0
VERTEX
8
1
10
-125.1824
20
761.8294
0
VERTEX
8
1
10
-136.3461
20
862.8958
0
VERTEX
8
1
10
-147.4862
20
963.9623
0
VERTEX
8
1
10
-158.6244
20
1065.0492
0
VERTEX
8
1
10
-169.7419
20
1166.1336
0
VERTEX
8
1
10
-180.8496
20
1267.2244
0
VERTEX
8
1
10
-191.9522
20
1368.3295
0
VERTEX
8
1
10
-203.0635
20
1469.4267
0
VERTEX
8
1
10
-214.1715
20
1570.5226
0
VERTEX
8
1
10
-225.2889
20
1671.6292
0
VERTEX
8
1
10
-236.3887
20
1772.7290
0
VERTEX
8
1
10
-247.4942
20
1873.8428
0
VERTEX
8
1
10
-258.5864
20
1974.9489
0
VERTEX
8
1
10
-269.6774
20
2076.0581
0
VERTEX
8
1
10
-280.7617
20
2177.1792
0
VERTEX
8
1
10
-291.8592
20
2278.2923
0
VERTEX
8
1
10
-302.9405
20
2379.4059
0
VERTEX
8
1
10
-314.0323
20
2480.5294
0
VERTEX
8
1
10
-325.1164
20
2581.6411
0
VERTEX
8
1
10
-336.2152
20
2682.7609
0
VERTEX
8
1
10
-338.9706
20
2707.8655
0
SEQEND
0
POLYLINE
8
1
62
0
66
1
6
CONTINUOUS
0
VERTEX
8
1
10
-338.9706
20
2707.8655
0
VERTEX
8
1
10
-741.4223
20
2721.1494
0
VERTEX
8
1
10
-757.0330
20
2721.6647
0
SEQEND
0
POLYLINE
8
1
62
0
66
1
6
CONTINUOUS
0
VERTEX
8
1
10
-757.0330
20
2721.6647
0
VERTEX
8
1
10
-749.5288
20
2692.2192
0
VERTEX
8
1
10
-723.6596
20
2590.7121
0
VERTEX
8
1
10
-697.7760
20
2489.1963
0
VERTEX
8
1
10
-671.8806
20
2387.6655
0
VERTEX
8
1
10
-645.9660
20
2286.1179
0
VERTEX
8
1
10
-620.0449
20
2184.5632
0
VERTEX
8
1
10
-594.1071
20
2082.9909
0
VERTEX
8
1
10
-568.1810
20
1981.4266
0
VERTEX
8
1
10
-542.2480
20
1879.8542
0
VERTEX
8
1
10
-516.3195
20
1778.2807
0
VERTEX
8
1
10
-490.3864
20
1676.7035
0
VERTEX
8
1
10
-464.4549
20
1575.1116
0
VERTEX
8
1
10
-438.5214
20
1473.5191
0
VERTEX
8
1
10
-412.5724
20
1371.9163
0
VERTEX
8
1
10
-386.6161
20
1270.3050
0
VERTEX
8
1
10
-360.6509
20
1168.6880
0
VERTEX
8
1
10
-334.6852
20
1067.0709
0
VERTEX
8
1
10
-308.7342
20
965.4501
0
VERTEX
8
1
10
-282.7833
20
863.8412
0
VERTEX
8
1
10
-256.8539
20
762.2504
0
VERTEX
8
1
10
-230.9473
20
660.6729
0
VERTEX
8
1
10
-205.0565
20
559.1102
0
VERTEX
8
1
10
-179.1681
20
457.5480
0
VERTEX
8
1
10
-153.3092
20
356.0184
0
VERTEX
8
1
10
-127.4586
20
254.4988
0
VERTEX
8
1
10
-101.6359
20
152.9941
0
VERTEX
8
1
10
-75.8104
20
51.4932
0
VERTEX
8
1
10
-50.0000
20
-50.0000
0
SEQEND
0
POLYLINE
8
2
62
1
66
1
6
CONTINUOUS
0
VERTEX
8
2
10
-336.2152
20
2682.7609
0
VERTEX
8
2
10
-734.9934
20
2695.9236
0
SEQEND
0
POLYLINE
8
2
62
1
66
1
6
CONTINUOUS
0
VERTEX
8
2
10
-35.4627
20
-46.3031
0
VERTEX
8
2
10
-61.2735
20
55.1919
0
VERTEX
8
2
10
-87.0989
20
156.6923
0
VERTEX
8
2
10
-112.9225
20
258.2002
0
VERTEX
8
2
10
-138.7732
20
359.7206
0
VERTEX
8
2
10
-164.6328
20
461.2531
0
VERTEX
8
2
10
-190.5213
20
562.8155
0
VERTEX
8
2
10
-216.4125
20
664.3799
0
VERTEX
8
2
10
-242.3198
20
765.9600
0
VERTEX
8
2
10
-268.2498
20
867.5531
0
VERTEX
8
2
10
-294.2006
20
969.1615
0
VERTEX
8
2
10
-320.1521
20
1070.7844
0
VERTEX
8
2
10
-346.1178
20
1172.4015
0
VERTEX
8
2
10
-372.0828
20
1274.0175
0
VERTEX
8
2
10
-398.0389
20
1375.6281
0
VERTEX
8
2
10
-423.9874
20
1477.2292
0
VERTEX
8
2
10
-449.9208
20
1578.8214
0
VERTEX
8
2
10
-475.8525
20
1680.4141
0
VERTEX
8
2
10
-501.7856
20
1781.9907
0
VERTEX
8
2
10
-527.7142
20
1883.5649
0
VERTEX
8
2
10
-553.6471
20
1985.1366
0
VERTEX
8
2
10
-579.5735
20
2086.7023
0
VERTEX
8
2
10
-605.5109
20
2188.2729
0
VERTEX
8
2
10
-631.4318
20
2289.8270
0
VERTEX
8
2
10
-657.3458
20
2391.3726
0
VERTEX
8
2
10
-683.2410
20
2492.9023
0
VERTEX
8
2
10
-709.1242
20
2594.4165
0
VERTEX
8
2
10
-734.9934
20
2695.9236
0
VERTEX
8
2
10
-741.4223
20
2721.1494
0
SEQEND
0
TEXT
8
2
62
1
10
-57.9492
20
-10.7468
40
12.0000
50
284.3106
1
1\2
0
ENDBLK
5
2
100
AcDbBlockEnd
0
BLOCK
5
3
100
AcDbEntity
8
1
100
AcDbBlockBegin
10
0
20
0
30
0
2
Panel3
70
0
3
Panel3
0
POLYLINE
8
1
62
0
66
1
6
CONTINUOUS
0
VERTEX
8
1
10
-100.0000
20
-100.0000
0
VERTEX
8
1
10
-86.3567
20
-93.7662
0
SEQEND
0
POLYLINE
8
1
62
0
66
1
6
CONTINUOUS
0
VERTEX
8
1
10
-86.3567
20
-93.7662
0
VERTEX
8
1
10
-109.7498
20
-2.4707
0
VERTEX
8
1
10
-133.1554
20
88.8405
0
VERTEX
8
1
10
-156.5527
20
180.1607
0
VERTEX
8
1
10
-179.9338
20
271.4944
0
VERTEX
8
1
10
-203.3111
20
362.8438
0
VERTEX
8
1
10
-226.6727
20
454.2106
0
VERTEX
8
1
10
-250.0392
20
545.5966
0
VERTEX
8
1
10
-273.3759
20
636.9908
0
VERTEX
8
1
10
-296.7158
20
728.4139
0
VERTEX
8
1
10
-320.0593
20
819.8523
0
VERTEX
8
1
10
-343.3752
20
911.3048
0
VERTEX
8
1
10
-366.7011
20
1002.7686
0
VERTEX
8
1
10
-390.0160
20
1094.2379
0
VERTEX
8
1
10
-413.3395
20
1185.7088
0
VERTEX
8
1
10
-436.6536
20
1277.1757
0
VERTEX
8
1
10
-459.9814
20
1368.6240
0
VERTEX
8
1
10
-483.3179
20
1460.0688
0
VERTEX
8
1
10
-506.6552
20
1551.4967
0
VERTEX
8
1
10
-530.0026
20
1642.9186
0
VERTEX
8
1
10
-553.3477
20
1734.3388
0
VERTEX
8
1
10
-576.6865
20
1825.7583
0
VERTEX
8
1
10
-600.0328
20
1917.1749
0
VERTEX
8
1
10
-623.3645
20
2008.5770
0
VERTEX
8
1
10
-646.7096
20
2099.9837
0
VERTEX
8
1
10
-670.0569
20
2191.3833
0
VERTEX
8
1
10
-693.3978
20
2282.7722
0
VERTEX
8
1
10
-716.7523
20
2374.1496
0
VERTEX
8
1
10
-740.1128
20
2465.5110
0
VERTEX
8
1
10
-763.4864
20
2556.8556
0
VERTEX
8
1
10
-786.8677
20
2648.1791
0
VERTEX
8
1
10
-793.3243
20
2673.3973
0
SEQEND
0
POLYLINE
8
1
62
0
66
1
6
CONTINUOUS
0
VERTEX
8
1
10
-793.3243
20
2673.3973
0
VERTEX
8
1
10
-1185.0689
20
2685.8651
0
VERTEX
8
1
10
-1210.3293
20
2686.6690
0
SEQEND
0
POLYLINE
8
1
62
0
66
1
6
CONTINUOUS
0
VERTEX
8
1
10
-1210.3293
20
2686.6690
0
VERTEX
8
1
10
-1214.1690
20
2665.4465
0
VERTEX
8
1
10
-1231.7039
20
2568.5300
0
VERTEX
8
1
10
-1249.2151
20
2471.5921
0
VERTEX
8
1
10
-1256.8101
20
2429.5424
0
SEQEND
0
POLYLINE
8
1
62
0
66
1
6
CONTINUOUS
0
VERTEX
8
1
10
-1256.8101
20
2429.5424
0
VERTEX
8
1
10
-1238.6074
20
2389.6696
0
VERTEX
8
1
10
-1162.9678
20
2223.9817
0
VERTEX
8
1
10
-1120.6027
20
2131.2373
0
VERTEX
8
1
10
-1078.2034
20
2038.4537
0
VERTEX
8
1
10
-1035.7869
20
1945.6451
0
VERTEX
8
1
10
-993.3477
20
1852.8129
0
VERTEX
8
1
10
-950.9051
20
1759.9732
0
VERTEX
8
1
10
-908.4522
20
1667.1065
0
VERTEX
8
1
10
-865.9950
20
1574.2258
0
VERTEX
8
1
10
-823.5228
20
1481.3233
0
VERTEX
8
1
10
-781.0250
20
1388.3947
0
VERTEX
8
1
10
-738.4859
20
1295.4319
0
VERTEX
8
1
10
-695.9258
20
1202.4374
0
VERTEX
8
1
10
-653.3346
20
1109.4273
0
VERTEX
8
1
10
-610.7370
20
1016.3862
0
VERTEX
8
1
10
-568.1095
20
923.3217
0
VERTEX
8
1
10
-525.4860
20
830.2484
0
VERTEX
8
1
10
-482.8654
20
737.1732
0
VERTEX
8
1
10
-440.2525
20
644.1038
0
VERTEX
8
1
10
-397.6614
20
551.0451
0
VERTEX
8
1
10
-355.0878
20
458.0093
0
VERTEX
8
1
10
-312.5285
20
364.9793
0
VERTEX
8
1
10
-269.9997
20
271.9640
0
VERTEX
8
1
10
-227.4904
20
178.9603
0
VERTEX
8
1
10
-184.9822
20
85.9647
0
VERTEX
8
1
10
-142.4824
20
-7.0234
0
VERTEX
8
1
10
-100.0000
20
-100.0000
0
SEQEND
0
POLYLINE
8
2
62
1
66
1
6
CONTINUOUS
0
VERTEX
8
2
10
-786.8677
20
2648.1791
0
VERTEX
8
2
10
-1189.5684
20
2660.9956
0
SEQEND
0
POLYLINE
8
2
62
1
66
1
6
CONTINUOUS
0
VERTEX
8
2
10
-86.3567
20
-93.7662
0
VERTEX
8
2
10
-128.8398
20
-0.7881
0
VERTEX
8
2
10
-171.3399
20
92.2006
0
VERTEX
8
2
10
-213.8479
20
185.1959
0
VERTEX
8
2
10
-256.3580
20
278.2013
0
VERTEX
8
2
10
-298.8881
20
371.2195
0
VERTEX
8
2
10
-341.4481
20
464.2509
0
VERTEX
8
2
10
-384.0221
20
557.2875
0
VERTEX
8
2
10
-426.6141
20
650.3483
0
VERTEX
8
2
10
-469.2273
20
743.4183
0
VERTEX
8
2
10
-511.8481
20
836.4940
0
VERTEX
8
2
10
-554.4720
20
929.5682
0
VERTEX
8
2
10
-597.0984
20
1022.6304
0
VERTEX
8
2
10
-639.6965
20
1115.6725
0
VERTEX
8
2
10
-682.2863
20
1208.6797
0
VERTEX
8
2
10
-724.8461
20
1301.6733
0
VERTEX
8
2
10
-767.3838
20
1394.6331
0
VERTEX
8
2
10
-809.8808
20
1487.5600
0
VERTEX
8
2
10
-852.3528
20
1580.4618
0
VERTEX
8
2
10
-894.8101
20
1673.3429
0
VERTEX
8
2
10
-937.2631
20
1766.2098
0
VERTEX
8
2
10
-979.7057
20
1859.0495
0
VERTEX
8
2
10
-1022.1442
20
1951.8802
0
VERTEX
8
2
10
-1064.5603
20
2044.6881
0
VERTEX
8
2
10
-1106.9588
20
2137.4698
0
VERTEX
8
2
10
-1149.3229
20
2230.2120
0
VERTEX
8
2
10
-1191.6473
20
2322.9064
0
VERTEX
8
2
10
-1233.9324
20
2415.5528
0
SEQEND
0
POLYLINE
8
2
62
1
66
1
6
CONTINUOUS
0
VERTEX
8
2
10
-1238.6074
20
2389.6696
0
VERTEX
8
2
10
-1233.9324
20
2415.5528
0
VERTEX
8
2
10
-1224.6133
20
2467.1480
0
VERTEX
8
2
10
-1207.1033
20
2564.0791
0
VERTEX
8
2
10
-1189.5684
20
2660.9956
0
VERTEX
8
2
10
-1185.0689
20
2685.8651
0
SEQEND
0
TEXT
8
2
62
1
10
-114.8171
20
-62.7917
40
12.0000
50
294.5758
1
1\3
0
POLYLINE
8
2
62
1
66
1
6
CONTINUOUS
0
VERTEX
8
2
10
-839.9833
20
2183.5902
0
VERTEX
8
2
10
-859.9729
20
2184.2356
0
SEQEND
0
POLYLINE
8
2
62
1
66
1
6
CONTINUOUS
0
VERTEX
8
2
10
-850.1394
20
2178.9155
0
VERTEX
8
2
10
-849.8167
20
2188.9103
0
SEQEND
0
ENDBLK
5
3
100
AcDbBlockEnd
0
BLOCK
5
4
100
AcDbEntity
8
1
100
AcDbBlockBegin
10
0
20
0
30
0
2
Panel4
70
0
3
Panel4
0
POLYLINE
8
1
62
0
66
1
6
CONTINUOUS
0
VERTEX
8
1
10
-162.6101
20
-158.1232
0
VERTEX
8
1
10
-150.0000
20
-150.0000
0
SEQEND
0
POLYLINE
8
1
62
0
66
1
6
CONTINUOUS
0
VERTEX
8
1
10
-150.0000
20
-150.0000
0
VERTEX
8
1
10
-183.8577
20
-76.2167
0
VERTEX
8
1
10
-217.7160
20
-2.4318
0
VERTEX
8
1
10
-251.5797
20
71.3677
0
VERTEX
8
1
10
-285.4250
20
145.1682
0
VERTEX
8
1
10
-319.2801
20
218.9891
0
VERTEX
8
1
10
-353.1284
20
292.8129
0
VERTEX
8
1
10
-386.9777
20
366.6613
0
VERTEX
8
1
10
-420.8268
20
440.5158
0
VERTEX
8
1
10
-454.6840
20
514.3976
0
VERTEX
8
1
10
-488.5272
20
588.2838
0
VERTEX
8
1
10
-522.3750
20
662.1915
0
VERTEX
8
1
10
-556.2306
20
736.0939
0
VERTEX
8
1
10
-590.0758
20
810.0082
0
VERTEX
8
1
10
-623.9161
20
883.9115
0
VERTEX
8
1
10
-657.7580
20
957.8166
0
VERTEX
8
1
10
-691.5945
20
1031.6991
0
VERTEX
8
1
10
-725.4304
20
1105.5751
0
VERTEX
8
1
10
-759.2563
20
1179.4186
0
VERTEX
8
1
10
-793.0800
20
1253.2385
0
VERTEX
8
1
10
-826.9016
20
1327.0428
0
VERTEX
8
1
10
-860.7188
20
1400.8095
0
VERTEX
8
1
10
-894.5248
20
1474.5601
0
VERTEX
8
1
10
-928.3303
20
1548.2819
0
VERTEX
8
1
10
-962.1288
20
1622.0053
0
VERTEX
8
1
10
-995.9210
20
1695.7089
0
VERTEX
8
1
10
-1029.7161
20
1769.4120
0
VERTEX
8
1
10
-1063.5026
20
1843.0918
0
VERTEX
8
1
10
-1097.2925
20
1916.7665
0
VERTEX
8
1
10
-1131.0717
20
1990.4135
0
VERTEX
8
1
10
-1164.8473
20
2064.0500
0
VERTEX
8
1
10
-1198.6130
20
2137.6486
0
VERTEX
8
1
10
-1232.3749
20
2211.2178
0
VERTEX
8
1
10
-1266.1095
20
2284.7427
0
VERTEX
8
1
10
-1299.8302
20
2358.2450
0
VERTEX
8
1
10
-1318.1192
20
2398.1104
0
SEQEND
0
POLYLINE
8
1
62
0
66
1
6
CONTINUOUS
0
VERTEX
8
1
10
-1318.1192
20
2398.1104
0
VERTEX
8
1
10
-1332.5317
20
2317.2421
0
VERTEX
8
1
10
-1349.8340
20
2220.2259
0
VERTEX
8
1
10
-1367.1306
20
2123.1720
0
VERTEX
8
1
10
-1384.4239
20
2026.1063
0
VERTEX
8
1
10
-1401.7129
20
1929.0006
0
VERTEX
8
1
10
-1418.9959
20
1831.8739
0
VERTEX
8
1
10
-1424.5844
20
1800.4934
0
SEQEND
0
POLYLINE
8
1
62
0
66
1
6
CONTINUOUS
0
VERTEX
8
1
10
-1424.5844
20
1800.4934
0
VERTEX
8
1
10
-1404.6942
20
1769.5920
0
VERTEX
8
1
10
-1321.2606
20
1639.9698
0
VERTEX
8
1
10
-1275.1215
20
1568.2968
0
VERTEX
8
1
10
-1228.9575
20
1496.5971
0
VERTEX
8
1
10
-1182.7771
20
1424.8785
0
VERTEX
8
1
10
-1136.5767
20
1353.1368
0
VERTEX
8
1
10
-1090.3591
20
1281.3712
0
VERTEX
8
1
10
-1044.1070
20
1209.5732
0
VERTEX
8
1
10
-997.8254
20
1137.7506
0
VERTEX
8
1
10
-951.5100
20
1065.8810
0
VERTEX
8
1
10
-905.1614
20
993.9783
0
VERTEX
8
1
10
-858.7922
20
922.0441
0
VERTEX
8
1
10
-812.3941
20
850.0790
0
VERTEX
8
1
10
-765.9871
20
778.0914
0
VERTEX
8
1
10
-719.5557
20
706.0814
0
VERTEX
8
1
10
-673.1103
20
634.0575
0
VERTEX
8
1
10
-626.6718
20
562.0285
0
VERTEX
8
1
10
-580.2371
20
490.0069
0
VERTEX
8
1
10
-533.7969
20
417.9774
0
VERTEX
8
1
10
-487.3780
20
345.9524
0
VERTEX
8
1
10
-440.9549
20
273.9338
0
VERTEX
8
1
10
-394.5596
20
201.9251
0
VERTEX
8
1
10
-348.1597
20
129.9156
0
VERTEX
8
1
10
-301.7829
20
57.9098
0
VERTEX
8
1
10
-255.3906
20
-14.1019
0
VERTEX
8
1
10
-208.9968
20
-86.1146
0
VERTEX
8
1
10
-162.6101
20
-158.1232
0
SEQEND
0
POLYLINE
8
2
62
1
66
1
6
CONTINUOUS
0
VERTEX
8
2
10
-150.0000
20
-150.0000
0
VERTEX
8
2
10
-196.3871
20
-77.9909
0
VERTEX
8
2
10
-242.7808
20
-5.9782
0
VERTEX
8
2
10
-289.1722
20
66.0320
0
VERTEX
8
2
10
-335.5506
20
138.0404
0
VERTEX
8
2
10
-381.9502
20
210.0494
0
VERTEX
8
2
10
-428.3472
20
282.0607
0
VERTEX
8
2
10
-474.7697
20
354.0783
0
VERTEX
8
2
10
-521.1900
20
426.1055
0
VERTEX
8
2
10
-567.6302
20
498.1349
0
VERTEX
8
2
10
-614.0648
20
570.1564
0
VERTEX
8
2
10
-660.5041
20
642.1867
0
VERTEX
8
2
10
-706.9491
20
714.2100
0
VERTEX
8
2
10
-753.3797
20
786.2188
0
VERTEX
8
2
10
-799.7872
20
858.2070
0
VERTEX
8
2
10
-846.1845
20
930.1711
0
VERTEX
8
2
10
-892.5537
20
1002.1052
0
VERTEX
8
2
10
-938.9014
20
1074.0065
0
VERTEX
8
2
10
-985.2165
20
1145.8756
0
VERTEX
8
2
10
-1031.4970
20
1217.6966
0
VERTEX
8
2
10
-1077.7480
20
1289.4928
0
VERTEX
8
2
10
-1123.9655
20
1361.2582
0
VERTEX
8
2
10
-1170.1655
20
1432.9992
0
VERTEX
8
2
10
-1216.3456
20
1504.7174
0
VERTEX
8
2
10
-1262.5089
20
1576.4160
0
VERTEX
8
2
10
-1308.6481
20
1648.0892
0
VERTEX
8
2
10
-1354.7608
20
1719.7198
0
VERTEX
8
2
10
-1400.8280
20
1791.3019
0
SEQEND
0
POLYLINE
8
2
62
1
66
1
6
CONTINUOUS
0
VERTEX
8
2
10
-1404.6942
20
1769.5920
0
VERTEX
8
2
10
-1400.8280
20
1791.3019
0
VERTEX
8
2
10
-1394.3826
20
1827.4941
0
VERTEX
8
2
10
-1377.1000
20
1924.6184
0
VERTEX
8
2
10
-1359.8115
20
2021.7214
0
VERTEX
8
2
10
-1342.5184
20
2118.7857
0
VERTEX
8
2
10
-1325.2223
20
2215.8366
0
VERTEX
8
2
10
-1307.9195
20
2312.8557
0
VERTEX
8
2
10
-1299.8302
20
2358.2450
0
SEQEND
0
TEXT
8
2
62
1
10
-182.5940
20
-123.4153
40
12.0000
50
302.7947
1
1\4
0
ENDBLK
5
4
100
AcDbBlockEnd
0
BLOCK
5
5
100
AcDbEntity
8
1
100
AcDbBlockBegin
10
0
20
0
30
0
2
Panel5
70
0
3
Panel5
0
POLYLINE
8
1
62
0
66
1
6
CONTINUOUS
0
VERTEX
8
1
10
-211.1603
20
-210.0224
0
VERTEX
8
1
10
-200.0000
20
-200.0000
0
SEQEND
0
POLYLINE
8
1
62
0
66
1
6
CONTINUOUS
0
VERTEX
8
1
10
-200.0000
20
-200.0000
0
VERTEX
8
1
10
-239.2782
20
-139.3255
0
VERTEX
8
1
10
-278.5512
20
-78.6545
0
VERTEX
8
1
10
-317.8215
20
-17.9732
0
VERTEX
8
1
10
-357.0739
20
42.7026
0
VERTEX
8
1
10
-396.3255
20
103.3942
0
VERTEX
8
1
10
-435.5732
20
164.0827
0
VERTEX
8
1
10
-474.8109
20
224.7793
0
VERTEX
8
1
10
-514.0521
20
285.4971
0
VERTEX
8
1
10
-553.2878
20
346.2142
0
VERTEX
8
1
10
-592.5339
20
406.9492
0
VERTEX
8
1
10
-631.7789
20
467.6816
0
VERTEX
8
1
10
-671.0162
20
528.4183
0
VERTEX
8
1
10
-710.2497
20
589.1654
0
VERTEX
8
1
10
-749.4829
20
649.8980
0
VERTEX
8
1
10
-788.7096
20
710.6308
0
VERTEX
8
1
10
-827.9270
20
771.3423
0
VERTEX
8
1
10
-867.1295
20
832.0355
0
VERTEX
8
1
10
-906.3345
20
892.7173
0
VERTEX
8
1
10
-945.5096
20
953.3653
0
VERTEX
8
1
10
-984.6830
20
1013.9962
0
VERTEX
8
1
10
-1023.8346
20
1074.5884
0
VERTEX
8
1
10
-1062.9667
20
1135.1504
0
VERTEX
8
1
10
-1102.0996
20
1195.6917
0
VERTEX
8
1
10
-1141.2068
20
1256.1936
0
VERTEX
8
1
10
-1180.3114
20
1316.6782
0
VERTEX
8
1
10
-1219.3965
20
1377.1291
0
VERTEX
8
1
10
-1258.4664
20
1437.5601
0
VERTEX
8
1
10
-1297.5464
20
1497.9861
0
VERTEX
8
1
10
-1336.6074
20
1558.3874
0
VERTEX
8
1
10
-1375.6567
20
1618.7698
0
VERTEX
8
1
10
-1414.6838
20
1679.1089
0
VERTEX
8
1
10
-1453.6906
20
1739.4225
0
VERTEX
8
1
10
-1473.6563
20
1770.2940
0
SEQEND
0
POLYLINE
8
1
62
0
66
1
6
CONTINUOUS
0
VERTEX
8
1
10
-1473.6563
20
1770.2940
0
VERTEX
8
1
10
-1489.0147
20
1682.7535
0
VERTEX
8
1
10
-1506.0844
20
1585.5446
0
VERTEX
8
1
10
-1523.1588
20
1488.2912
0
VERTEX
8
1
10
-1540.2255
20
1391.0141
0
VERTEX
8
1
10
-1557.8891
20
1290.2859
0
SEQEND
0
POLYLINE
8
1
62
0
66
1
6
CONTINUOUS
0
VERTEX
8
1
10
-1557.8891
20
1290.2859
0
VERTEX
8
1
10
-1536.6589
20
1266.6126
0
VERTEX
8
1
10
-1446.4441
20
1166.0159
0
VERTEX
8
1
10
-1397.3408
20
1111.2703
0
VERTEX
8
1
10
-1348.2009
20
1056.4897
0
VERTEX
8
1
10
-1299.0268
20
1001.6849
0
VERTEX
8
1
10
-1249.8166
20
946.8353
0
VERTEX
8
1
10
-1200.5658
20
891.9585
0
VERTEX
8
1
10
-1151.2726
20
837.0347
0
VERTEX
8
1
10
-1101.9453
20
782.0855
0
VERTEX
8
1
10
-1052.5759
20
727.0948
0
VERTEX
8
1
10
-1003.1772
20
672.0766
0
VERTEX
8
1
10
-953.7496
20
617.0410
0
VERTEX
8
1
10
-904.2927
20
561.9692
0
VERTEX
8
1
10
-854.8260
20
506.8912
0
VERTEX
8
1
10
-805.3432
20
451.7886
0
VERTEX
8
1
10
-755.8590
20
396.6843
0
VERTEX
8
1
10
-706.3551
20
341.5596
0
VERTEX
8
1
10
-656.8713
20
286.4417
0
VERTEX
8
1
10
-607.3601
20
231.3035
0
VERTEX
8
1
10
-557.8616
20
176.1634
0
VERTEX
8
1
10
-508.3601
20
121.0229
0
VERTEX
8
1
10
-458.8610
20
65.8701
0
VERTEX
8
1
10
-409.3579
20
10.7174
0
VERTEX
8
1
10
-359.8324
20
-44.4556
0
VERTEX
8
1
10
-310.2914
20
-99.6301
0
VERTEX
8
1
10
-260.7303
20
-154.8245
0
VERTEX
8
1
10
-211.1603
20
-210.0224
0
SEQEND
0
POLYLINE
8
2
62
1
66
1
6
CONTINUOUS
0
VERTEX
8
2
10
-200.0000
20
-200.0000
0
VERTEX
8
2
10
-249.5695
20
-144.8028
0
VERTEX
8
2
10
-299.1303
20
-89.6086
0
VERTEX
8
2
10
-348.6699
20
-34.4357
0
VERTEX
8
2
10
-398.1950
20
20.7368
0
VERTEX
8
2
10
-447.6977
20
75.8891
0
VERTEX
8
2
10
-497.1981
20
131.0434
0
VERTEX
8
2
10
-546.6994
20
186.1836
0
VERTEX
8
2
10
-596.1993
20
241.3253
0
VERTEX
8
2
10
-645.7096
20
296.4625
0
VERTEX
8
2
10
-695.1948
20
351.5820
0
VERTEX
8
2
10
-744.6985
20
406.7065
0
VERTEX
8
2
10
-794.1828
20
461.8108
0
VERTEX
8
2
10
-843.6662
20
516.9141
0
VERTEX
8
2
10
-893.1325
20
571.9916
0
VERTEX
8
2
10
-942.5897
20
627.0638
0
VERTEX
8
2
10
-992.0160
20
682.0979
0
VERTEX
8
2
10
-1041.4142
20
737.1155
0
VERTEX
8
2
10
-1090.7831
20
792.1057
0
VERTEX
8
2
10
-1140.1093
20
847.0536
0
VERTEX
8
2
10
-1189.4024
20
901.9774
0
VERTEX
8
2
10
-1238.6516
20
956.8524
0
VERTEX
8
2
10
-1287.8622
20
1011.7024
0
VERTEX
8
2
10
-1337.0350
20
1066.5058
0
VERTEX
8
2
10
-1386.1744
20
1121.2859
0
VERTEX
8
2
10
-1435.2773
20
1176.0311
0
VERTEX
8
2
10
-1484.3459
20
1230.7418
0
VERTEX
8
2
10
-1533.3634
20
1285.4057
0
SEQEND
0
POLYLINE
8
2
62
1
66
1
6
CONTINUOUS
0
VERTEX
8
2
10
-1536.6589
20
1266.6126
0
VERTEX
8
2
10
-1533.3634
20
1285.4057
0
VERTEX
8
2
10
-1515.6016
20
1386.6940
0
VERTEX
8
2
10
-1498.5354
20
1483.9682
0
VERTEX
8
2
10
-1481.4612
20
1581.2208
0
VERTEX
8
2
10
-1464.3908
20
1678.4334
0
VERTEX
8
2
10
-1453.6906
20
1739.4225
0
SEQEND
0
TEXT
8
2
62
1
10
-236.3917
20
-178.9198
40
12.0000
50
311.9125
1
1\5
0
POLYLINE
8
2
62
1
66
1
6
CONTINUOUS
0
VERTEX
8
2
10
-1107.4089
20
947.3243
0
VERTEX
8
2
10
-1127.4027
20
947.8252
0
SEQEND
0
POLYLINE
8
2
62
1
66
1
6
CONTINUOUS
0
VERTEX
8
2
10
-1117.5310
20
942.5763
0
VERTEX
8
2
10
-1117.2805
20
952.5732
0
SEQEND
0
ENDBLK
5
5
100
AcDbBlockEnd
0
BLOCK
5
6
100
AcDbEntity
8
1
100
AcDbBlockBegin
10
0
20
0
30
0
2
Panel6
70
0
3
Panel6
0
POLYLINE
8
1
62
0
66
1
6
CONTINUOUS
0
VERTEX
8
1
10
-259.0280
20
-261.9789
0
VERTEX
8
1
10
-250.0000
20
-250.0000
0
SEQEND
0
POLYLINE
8
1
62
0
66
1
6
CONTINUOUS
0
VERTEX
8
1
10
-250.0000
20
-250.0000
0
VERTEX
8
1
10
-291.9344
20
-203.5254
0
VERTEX
8
1
10
-333.8637
20
-157.0493
0
VERTEX
8
1
10
-375.7646
20
-110.5771
0
VERTEX
8
1
10
-417.6589
20
-64.1110
0
VERTEX
8
1
10
-459.5288
20
-17.6514
0
VERTEX
8
1
10
-501.4014
20
28.8044
0
VERTEX
8
1
10
-543.2439
20
75.2470
0
VERTEX
8
1
10
-585.0938
20
121.7001
0
VERTEX
8
1
10
-626.9345
20
168.1531
0
VERTEX
8
1
10
-668.7778
20
214.6062
0
VERTEX
8
1
10
-710.6142
20
261.0594
0
VERTEX
8
1
10
-752.4454
20
307.5130
0
VERTEX
8
1
10
-794.2581
20
353.9562
0
VERTEX
8
1
10
-836.0813
20
400.4051
0
VERTEX
8
1
10
-877.8858
20
446.8495
0
VERTEX
8
1
10
-919.6877
20
493.2849
0
VERTEX
8
1
10
-961.4760
20
539.7082
0
VERTEX
8
1
10
-1003.2577
20
586.1145
0
VERTEX
8
1
10
-1045.0123
20
632.5011
0
VERTEX
8
1
10
-1086.7494
20
678.8553
0
VERTEX
8
1
10
-1128.4680
20
725.1949
0
VERTEX
8
1
10
-1170.1682
20
771.5074
0
VERTEX
8
1
10
-1211.8505
20
817.7917
0
VERTEX
8
1
10
-1253.5047
20
864.0461
0
VERTEX
8
1
10
-1295.1427
20
910.2704
0
VERTEX
8
1
10
-1336.7451
20
956.4541
0
VERTEX
8
1
10
-1378.3444
20
1002.6179
0
VERTEX
8
1
10
-1419.9115
20
1048.7513
0
VERTEX
8
1
10
-1461.4606
20
1094.8619
0
VERTEX
8
1
10
-1502.9997
20
1140.9431
0
VERTEX
8
1
10
-1544.5064
20
1186.9885
0
VERTEX
8
1
10
-1585.9801
20
1233.0002
0
VERTEX
8
1
10
-1607.2706
20
1256.6203
0
SEQEND
0
POLYLINE
8
1
62
0
66
1
6
CONTINUOUS
0
VERTEX
8
1
10
-1607.2706
20
1256.6203
0
VERTEX
8
1
10
-1626.7478
20
1143.8527
0
VERTEX
8
1
10
-1643.5704
20
1046.4124
0
VERTEX
8
1
10
-1660.4014
20
948.9339
0
VERTEX
8
1
10
-1677.2383
20
851.3811
0
VERTEX
8
1
10
-1683.3844
20
815.7556
0
VERTEX
8
1
10
-1684.0655
20
811.8078
0
SEQEND
0
POLYLINE
8
1
62
0
66
1
6
CONTINUOUS
0
VERTEX
8
1
10
-1684.0655
20
811.8078
0
VERTEX
8
1
10
-1661.6162
20
794.8819
0
VERTEX
8
1
10
-1563.9227
20
721.2250
0
VERTEX
8
1
10
-1511.9749
20
682.0691
0
VERTEX
8
1
10
-1460.0126
20
642.9152
0
VERTEX
8
1
10
-1408.0373
20
603.7497
0
VERTEX
8
1
10
-1356.0463
20
564.5716
0
VERTEX
8
1
10
-1304.0396
20
525.3938
0
VERTEX
8
1
10
-1252.0172
20
486.2065
0
VERTEX
8
1
10
-1199.9810
20
447.0148
0
VERTEX
8
1
10
-1147.9206
20
407.8081
0
VERTEX
8
1
10
-1095.8586
20
368.5905
0
VERTEX
8
1
10
-1043.7809
20
329.3696
0
VERTEX
8
1
10
-991.6912
20
290.1395
0
VERTEX
8
1
10
-939.5911
20
250.8927
0
VERTEX
8
1
10
-887.4771
20
211.6373
0
VERTEX
8
1
10
-835.3489
20
172.3742
0
VERTEX
8
1
10
-783.2111
20
133.0885
0
VERTEX
8
1
10
-731.0559
20
93.7940
0
VERTEX
8
1
10
-678.8720
20
54.4814
0
VERTEX
8
1
10
-626.6785
20
15.1424
0
VERTEX
8
1
10
-574.4499
20
-24.2201
0
VERTEX
8
1
10
-522.1799
20
-63.6138
0
VERTEX
8
1
10
-469.8503
20
-103.0620
0
VERTEX
8
1
10
-417.4334
20
-142.5782
0
VERTEX
8
1
10
-364.8824
20
-182.1937
0
VERTEX
8
1
10
-312.1223
20
-221.9640
0
VERTEX
8
1
10
-259.0280
20
-261.9789
0
SEQEND
0
POLYLINE
8
2
62
1
66
1
6
CONTINUOUS
0
VERTEX
8
2
10
-250.0000
20
-250.0000
0
VERTEX
8
2
10
-303.0932
20
-209.9859
0
VERTEX
8
2
10
-355.8529
20
-170.2158
0
VERTEX
8
2
10
-408.4037
20
-130.6005
0
VERTEX
8
2
10
-460.8208
20
-91.0841
0
VERTEX
8
2
10
-513.1519
20
-51.6348
0
VERTEX
8
2
10
-565.4219
20
-12.2412
0
VERTEX
8
2
10
-617.6501
20
27.1210
0
VERTEX
8
2
10
-669.8463
20
66.4621
0
VERTEX
8
2
10
-722.0297
20
105.7744
0
VERTEX
8
2
10
-774.1843
20
145.0683
0
VERTEX
8
2
10
-826.3244
20
184.3557
0
VERTEX
8
2
10
-878.4521
20
223.6185
0
VERTEX
8
2
10
-930.5658
20
262.8737
0
VERTEX
8
2
10
-982.6673
20
302.1215
0
VERTEX
8
2
10
-1034.7570
20
341.3517
0
VERTEX
8
2
10
-1086.8335
20
380.5716
0
VERTEX
8
2
10
-1138.8968
20
419.7902
0
VERTEX
8
2
10
-1190.9568
20
458.9966
0
VERTEX
8
2
10
-1242.9921
20
498.1876
0
VERTEX
8
2
10
-1295.0141
20
537.3746
0
VERTEX
8
2
10
-1347.0190
20
576.5512
0
VERTEX
8
2
10
-1399.0102
20
615.7294
0
VERTEX
8
2
10
-1450.9857
20
654.8950
0
VERTEX
8
2
10
-1502.9462
20
694.0475
0
VERTEX
8
2
10
-1554.8924
20
733.2023
0
VERTEX
8
2
10
-1606.8214
20
772.3544
0
VERTEX
8
2
10
-1658.7483
20
811.5054
0
SEQEND
0
POLYLINE
8
2
62
1
66
1
6
CONTINUOUS
0
VERTEX
8
2
10
-1661.6162
20
794.8819
0
VERTEX
8
2
10
-1658.7483
20
811.5054
0
VERTEX
8
2
10
-1652.6025
20
847.1292
0
VERTEX
8
2
10
-1635.7660
20
944.6802
0
VERTEX
8
2
10
-1618.9348
20
1042.1592
0
VERTEX
8
2
10
-1602.1126
20
1139.5977
0
VERTEX
8
2
10
-1585.9801
20
1233.0002
0
SEQEND
0
TEXT
8
2
62
1
10
-289.7705
20
-236.3099
40
12.0000
50
323.0016
1
1\6
0
ENDBLK
5
6
100
AcDbBlockEnd
0
BLOCK
5
7
100
AcDbEntity
8
1
100
AcDbBlockBegin
10
0
20
0
30
0
2
Panel7
70
0
3
Panel7
0
POLYLINE
8
1
62
0
66
1
6
CONTINUOUS
0
VERTEX
8
1
10
-306.6549
20
-313.4429
0
VERTEX
8
1
10
-300.0000
20
-300.0000
0
SEQEND
0
POLYLINE
8
1
62
0
66
1
6
CONTINUOUS
0
VERTEX
8
1
10
-300.0000
20
-300.0000
0
VERTEX
8
1
10
-346.3196
20
-265.2225
0
VERTEX
8
1
10
-392.3802
20
-230.6224
0
VERTEX
8
1
10
-438.2525
20
-196.1623
0
VERTEX
8
1
10
-484.0165
20
-161.7911
0
VERTEX
8
1
10
-529.6875
20
-127.4776
0
VERTEX
8
1
10
-575.3035
20
-93.1865
0
VERTEX
8
1
10
-620.8649
20
-58.9497
0
VERTEX
8
1
10
-666.4011
20
-24.7157
0
VERTEX
8
1
10
-711.9015
20
9.4875
0
VERTEX
8
1
10
-757.3884
20
43.6923
0
VERTEX
8
1
10
-802.8458
20
77.8791
0
VERTEX
8
1
10
-848.2967
20
112.0566
0
VERTEX
8
1
10
-893.7244
20
146.2383
0
VERTEX
8
1
10
-939.1484
20
180.4100
0
VERTEX
8
1
10
-984.5511
20
214.5618
0
VERTEX
8
1
10
-1029.9537
20
248.7240
0
VERTEX
8
1
10
-1075.3352
20
282.8742
0
VERTEX
8
1
10
-1120.7155
20
317.0207
0
VERTEX
8
1
10
-1166.0754
20
351.1531
0
VERTEX
8
1
10
-1211.4353
20
385.2888
0
VERTEX
8
1
10
-1256.7756
20
419.4062
0
VERTEX
8
1
10
-1302.1159
20
453.5223
0
VERTEX
8
1
10
-1347.4360
20
487.6242
0
VERTEX
8
1
10
-1392.7570
20
521.7235
0
VERTEX
8
1
10
-1438.0581
20
555.8049
0
VERTEX
8
1
10
-1483.3610
20
589.8892
0
VERTEX
8
1
10
-1528.6466
20
623.9532
0
VERTEX
8
1
10
-1573.9361
20
658.0151
0
VERTEX
8
1
10
-1619.2084
20
692.0573
0
VERTEX
8
1
10
-1664.4836
20
726.0953
0
VERTEX
8
1
10
-1709.7508
20
760.1339
0
VERTEX
8
1
10
-1732.2238
20
777.0324
0
SEQEND
0
POLYLINE
8
1
62
0
66
1
6
CONTINUOUS
0
VERTEX
8
1
10
-1732.2238
20
777.0324
0
VERTEX
8
1
10
-1744.9968
20
702.3469
0
VERTEX
8
1
10
-1761.7111
20
604.6158
0
VERTEX
8
1
10
-1778.4272
20
506.8008
0
VERTEX
8
1
10
-1791.5343
20
430.0811
0
VERTEX
8
1
10
-1792.9127
20
422.0126
0
SEQEND
0
POLYLINE
8
1
62
0
66
1
6
CONTINUOUS
0
VERTEX
8
1
10
-1792.9127
20
422.0126
0
VERTEX
8
1
10
-1769.5278
20
410.4387
0
VERTEX
8
1
10
-1665.3529
20
358.8792
0
VERTEX
8
1
10
-1611.2427
20
332.0931
0
VERTEX
8
1
10
-1557.1288
20
305.3222
0
VERTEX
8
1
10
-1503.0039
20
278.5399
0
VERTEX
8
1
10
-1448.8828
20
251.7662
0
VERTEX
8
1
10
-1394.7466
20
224.9910
0
VERTEX
8
1
10
-1340.6160
20
198.2140
0
VERTEX
8
1
10
-1286.4683
20
171.4247
0
VERTEX
8
1
10
-1232.3186
20
144.6410
0
VERTEX
8
1
10
-1178.1534
20
117.8479
0
VERTEX
8
1
10
-1123.9891
20
91.0532
0
VERTEX
8
1
10
-1069.8064
20
64.2480
0
VERTEX
8
1
10
-1015.6227
20
37.4405
0
VERTEX
8
1
10
-961.4154
20
10.6196
0
VERTEX
8
1
10
-907.1997
20
-16.2068
0
VERTEX
8
1
10
-852.9564
20
-43.0462
0
VERTEX
8
1
10
-798.7009
20
-69.9010
0
VERTEX
8
1
10
-744.4002
20
-96.7656
0
VERTEX
8
1
10
-690.0821
20
-123.6545
0
VERTEX
8
1
10
-635.7023
20
-150.5685
0
VERTEX
8
1
10
-581.2702
20
-177.5070
0
VERTEX
8
1
10
-526.7374
20
-204.5018
0
VERTEX
8
1
10
-472.0950
20
-231.5529
0
VERTEX
8
1
10
-417.2632
20
-258.6862
0
VERTEX
8
1
10
-362.1761
20
-285.9570
0
VERTEX
8
1
10
-306.6549
20
-313.4429
0
SEQEND
0
POLYLINE
8
2
62
1
66
1
6
CONTINUOUS
0
VERTEX
8
2
10
-300.0000
20
-300.0000
0
VERTEX
8
2
10
-355.5212
20
-272.5141
0
VERTEX
8
2
10
-410.6105
20
-245.2422
0
VERTEX
8
2
10
-465.4400
20
-218.1100
0
VERTEX
8
2
10
-520.0828
20
-191.0588
0
VERTEX
8
2
10
-574.6169
20
-164.0633
0
VERTEX
8
2
10
-629.0487
20
-137.1249
0
VERTEX
8
2
10
-683.4274
20
-110.2115
0
VERTEX
8
2
10
-737.7487
20
-83.3211
0
VERTEX
8
2
10
-792.0469
20
-56.4576
0
VERTEX
8
2
10
-846.3042
20
-29.6019
0
VERTEX
8
2
10
-900.5474
20
-2.7625
0
VERTEX
8
2
10
-954.7634
20
24.0640
0
VERTEX
8
2
10
-1008.9710
20
50.8850
0
VERTEX
8
2
10
-1063.1550
20
77.6927
0
VERTEX
8
2
10
-1117.3381
20
104.4980
0
VERTEX
8
2
10
-1171.5028
20
131.2930
0
VERTEX
8
2
10
-1225.6683
20
158.0863
0
VERTEX
8
2
10
-1279.8166
20
184.8692
0
VERTEX
8
2
10
-1333.9652
20
211.6590
0
VERTEX
8
2
10
-1388.0966
20
238.4364
0
VERTEX
8
2
10
-1442.2317
20
265.2110
0
VERTEX
8
2
10
-1496.3515
20
291.9840
0
VERTEX
8
2
10
-1550.4775
20
318.7669
0
VERTEX
8
2
10
-1604.5880
20
345.5362
0
VERTEX
8
2
10
-1658.7007
20
372.3235
0
VERTEX
8
2
10
-1712.7934
20
399.0886
0
VERTEX
8
2
10
-1766.8913
20
425.8710
0
SEQEND
0
POLYLINE
8
2
62
1
66
1
6
CONTINUOUS
0
VERTEX
8
2
10
-1769.5278
20
410.4387
0
VERTEX
8
2
10
-1766.8913
20
425.8710
0
VERTEX
8
2
10
-1753.7845
20
502.5895
0
VERTEX
8
2
10
-1737.0689
20
600.4014
0
VERTEX
8
2
10
-1720.3546
20
698.1325
0
VERTEX
8
2
10
-1709.7508
20
760.1339
0
SEQEND
0
TEXT
8
2
62
1
10
-341.6188
20
-293.9101
40
12.0000
50
333.6721
1
1\7
0
ENDBLK
5
7
100
AcDbBlockEnd
0
BLOCK
5
8
100
AcDbEntity
8
1
100
AcDbBlockBegin
10
0
20
0
30
0
2
Panel8
70
0
3
Panel8
0
POLYLINE
8
1
62
0
66
1
6
CONTINUOUS
0
VERTEX
8
1
10
-354.1740
20
-364.4076
0
VERTEX
8
1
10
-350.0000
20
-350.0000
0
SEQEND
0
POLYLINE
8
1
62
0
66
1
6
CONTINUOUS
0
VERTEX
8
1
10
-350.0000
20
-350.0000
0
VERTEX
8
1
10
-398.4039
20
-326.0756
0
VERTEX
8
1
10
-446.4580
20
-302.3251
0
VERTEX
8
1
10
-494.2823
20
-278.6857
0
VERTEX
8
1
10
-541.9578
20
-255.1046
0
VERTEX
8
1
10
-589.5089
20
-231.5892
0
VERTEX
8
1
10
-636.9785
20
-208.1092
0
VERTEX
8
1
10
-684.3935
20
-184.6645
0
VERTEX
8
1
10
-731.7509
20
-161.2319
0
VERTEX
8
1
10
-779.0704
20
-137.8203
0
VERTEX
8
1
10
-826.3690
20
-114.4185
0
VERTEX
8
1
10
-873.6322
20
-91.0254
0
VERTEX
8
1
10
-920.8747
20
-67.6499
0
VERTEX
8
1
10
-968.1101
20
-44.2694
0
VERTEX
8
1
10
-1015.3201
20
-20.8956
0
VERTEX
8
1
10
-1062.5179
20
2.4636
0
VERTEX
8
1
10
-1109.7144
20
25.8401
0
VERTEX
8
1
10
-1156.8897
20
49.1920
0
VERTEX
8
1
10
-1204.0570
20
72.5511
0
VERTEX
8
1
10
-1251.2261
20
95.9135
0
VERTEX
8
1
10
-1298.3782
20
119.2724
0
VERTEX
8
1
10
-1345.5243
20
142.6165
0
VERTEX
8
1
10
-1392.6739
20
165.9747
0
VERTEX
8
1
10
-1439.8079
20
189.3266
0
VERTEX
8
1
10
-1486.9373
20
212.6725
0
VERTEX
8
1
10
-1534.0723
20
236.0187
0
VERTEX
8
1
10
-1581.1933
20
259.3573
0
VERTEX
8
1
10
-1628.3112
20
282.6972
0
VERTEX
8
1
10
-1675.4356
20
306.0409
0
VERTEX
8
1
10
-1722.5457
20
329.3757
0
VERTEX
8
1
10
-1769.6528
20
352.7061
0
VERTEX
8
1
10
-1816.7685
20
376.0344
0
VERTEX
8
1
10
-1840.1521
20
387.6123
0
SEQEND
0
POLYLINE
8
1
62
0
66
1
6
CONTINUOUS
0
VERTEX
8
1
10
-1840.1521
20
387.6123
0
VERTEX
8
1
10
-1845.0341
20
359.0504
0
VERTEX
8
1
10
-1861.7914
20
261.0619
0
VERTEX
8
1
10
-1878.5581
20
162.9888
0
VERTEX
8
1
10
-1890.4682
20
93.2955
0
VERTEX
8
1
10
-1892.5347
20
81.2036
0
SEQEND
0
POLYLINE
8
1
62
0
66
1
6
CONTINUOUS
0
VERTEX
8
1
10
-1892.5347
20
81.2036
0
VERTEX
8
1
10
-1868.3684
20
74.2043
0
VERTEX
8
1
10
-1758.1750
20
42.2890
0
VERTEX
8
1
10
-1702.2690
20
26.1022
0
VERTEX
8
1
10
-1646.3551
20
9.9086
0
VERTEX
8
1
10
-1590.4465
20
-6.2754
0
VERTEX
8
1
10
-1534.5260
20
-22.4699
0
VERTEX
8
1
10
-1478.6091
20
-38.6548
0
VERTEX
8
1
10
-1422.6849
20
-54.8469
0
VERTEX
8
1
10
-1366.7645
20
-71.0433
0
VERTEX
8
1
10
-1310.8292
20
-87.2403
0
VERTEX
8
1
10
-1254.8891
20
-103.4422
0
VERTEX
8
1
10
-1198.9468
20
-119.6419
0
VERTEX
8
1
10
-1142.9857
20
-135.8468
0
VERTEX
8
1
10
-1087.0267
20
-152.0454
0
VERTEX
8
1
10
-1031.0486
20
-168.2637
0
VERTEX
8
1
10
-975.0564
20
-184.4768
0
VERTEX
8
1
10
-919.0376
20
-200.7018
0
VERTEX
8
1
10
-863.0045
20
-216.9422
0
VERTEX
8
1
10
-806.9213
20
-233.1833
0
VERTEX
8
1
10
-750.8020
20
-249.4533
0
VERTEX
8
1
10
-694.6273
20
-265.7300
0
VERTEX
8
1
10
-638.3687
20
-282.0321
0
VERTEX
8
1
10
-582.0175
20
-298.3724
0
VERTEX
8
1
10
-525.5024
20
-314.7542
0
VERTEX
8
1
10
-468.7871
20
-331.1955
0
VERTEX
8
1
10
-411.7345
20
-347.7317
0
VERTEX
8
1
10
-354.1740
20
-364.4076
0
SEQEND
0
POLYLINE
8
2
62
1
66
1
6
CONTINUOUS
0
VERTEX
8
2
10
-350.0000
20
-350.0000
0
VERTEX
8
2
10
-407.5587
20
-333.3247
0
VERTEX
8
2
10
-464.6107
20
-316.7887
0
VERTEX
8
2
10
-521.3263
20
-300.3473
0
VERTEX
8
2
10
-577.8400
20
-283.9658
0
VERTEX
8
2
10
-634.1939
20
-267.6248
0
VERTEX
8
2
10
-690.4527
20
-251.3226
0
VERTEX
8
2
10
-746.6252
20
-235.0466
0
VERTEX
8
2
10
-802.7489
20
-218.7753
0
VERTEX
8
2
10
-858.8288
20
-202.5351
0
VERTEX
8
2
10
-914.8646
20
-186.2939
0
VERTEX
8
2
10
-970.8844
20
-170.0687
0
VERTEX
8
2
10
-1026.8744
20
-153.8562
0
VERTEX
8
2
10
-1082.8558
20
-137.6369
0
VERTEX
8
2
10
-1138.8135
20
-121.4387
0
VERTEX
8
2
10
-1194.7745
20
-105.2339
0
VERTEX
8
2
10
-1250.7162
20
-89.0343
0
VERTEX
8
2
10
-1306.6571
20
-72.8322
0
VERTEX
8
2
10
-1362.5915
20
-56.6355
0
VERTEX
8
2
10
-1418.5132
20
-40.4386
0
VERTEX
8
2
10
-1474.4386
20
-24.2463
0
VERTEX
8
2
10
-1530.3534
20
-8.0619
0
VERTEX
8
2
10
-1586.2756
20
8.1331
0
VERTEX
8
2
10
-1642.1823
20
24.3165
0
VERTEX
8
2
10
-1698.0973
20
40.5105
0
VERTEX
8
2
10
-1754.0012
20
56.6966
0
VERTEX
8
2
10
-1809.9125
20
72.8935
0
VERTEX
8
2
10
-1865.8255
20
89.0842
0
SEQEND
0
POLYLINE
8
2
62
1
66
1
6
CONTINUOUS
0
VERTEX
8
2
10
-1868.3684
20
74.2043
0
VERTEX
8
2
10
-1865.8255
20
89.0842
0
VERTEX
8
2
10
-1853.9156
20
158.7759
0
VERTEX
8
2
10
-1837.1491
20
256.8477
0
VERTEX
8
2
10
-1820.3915
20
354.8383
0
VERTEX
8
2
10
-1816.7685
20
376.0344
0
SEQEND
0
TEXT
8
2
62
1
10
-392.0381
20
-351.3574
40
12.0000
50
343.8455
1
1\8
0
ENDBLK
5
8
100
AcDbBlockEnd
0
BLOCK
5
9
100
AcDbEntity
8
1
100
AcDbBlockBegin
10
0
20
0
30
0
2
Panel9
70
0
3
Panel9
0
POLYLINE
8
1
62
0
66
1
6
CONTINUOUS
0
VERTEX
8
1
10
-402.0260
20
-414.8625
0
VERTEX
8
1
10
-400.0000
20
-400.0000
0
SEQEND
0
POLYLINE
8
1
62
0
66
1
6
CONTINUOUS
0
VERTEX
8
1
10
-400.0000
20
-400.0000
0
VERTEX
8
1
10
-451.8258
20
-384.9780
0
VERTEX
8
1
10
-503.2235
20
-370.0784
0
VERTEX
8
1
10
-554.3341
20
-355.2570
0
VERTEX
8
1
10
-605.2497
20
-340.4897
0
VERTEX
8
1
10
-656.0275
20
-325.7608
0
VERTEX
8
1
10
-706.6922
20
-311.0583
0
VERTEX
8
1
10
-757.2921
20
-296.3693
0
VERTEX
8
1
10
-807.8331
20
-281.7046
0
VERTEX
8
1
10
-858.3281
20
-267.0416
0
VERTEX
8
1
10
-908.7880
20
-252.3879
0
VERTEX
8
1
10
-959.2096
20
-237.7523
0
VERTEX
8
1
10
-1009.6179
20
-223.1112
0
VERTEX
8
1
10
-1060.0068
20
-208.4760
0
VERTEX
8
1
10
-1110.3806
20
-193.8430
0
VERTEX
8
1
10
-1160.7419
20
-179.2022
0
VERTEX
8
1
10
-1211.0824
20
-164.5731
0
VERTEX
8
1
10
-1261.4239
20
-149.9414
0
VERTEX
8
1
10
-1311.7579
20
-135.3196
0
VERTEX
8
1
10
-1362.0854
20
-120.6846
0
VERTEX
8
1
10
-1412.4074
20
-106.0483
0
VERTEX
8
1
10
-1462.7152
20
-91.4282
0
VERTEX
8
1
10
-1513.0293
20
-76.7934
0
VERTEX
8
1
10
-1563.3401
20
-62.1663
0
VERTEX
8
1
10
-1613.6482
20
-47.5333
0
VERTEX
8
1
10
-1663.9543
20
-32.8960
0
VERTEX
8
1
10
-1714.2486
20
-18.2644
0
VERTEX
8
1
10
-1764.5510
20
-3.6410
0
VERTEX
8
1
10
-1814.8515
20
10.9966
0
VERTEX
8
1
10
-1865.1512
20
25.6226
0
VERTEX
8
1
10
-1915.4517
20
40.2590
0
VERTEX
8
1
10
-1939.6089
20
47.2882
0
SEQEND
0
POLYLINE
8
1
62
0
66
1
6
CONTINUOUS
0
VERTEX
8
1
10
-1939.6089
20
47.2882
0
VERTEX
8
1
10
-1944.9875
20
16.0783
0
VERTEX
8
1
10
-1961.8801
20
-82.0868
0
VERTEX
8
1
10
-1979.3769
20
-183.7835
0
VERTEX
8
1
10
-1982.0696
20
-199.4346
0
SEQEND
0
POLYLINE
8
1
62
0
66
1
6
CONTINUOUS
0
VERTEX
8
1
10
-1982.0696
20
-199.4346
0
VERTEX
8
1
10
-1957.2838
20
-202.8142
0
VERTEX
8
1
10
-1899.4161
20
-210.7047
0
VERTEX
8
1
10
-1842.0658
20
-218.5221
0
VERTEX
8
1
10
-1784.7192
20
-226.3297
0
VERTEX
8
1
10
-1727.3867
20
-234.1433
0
VERTEX
8
1
10
-1670.0402
20
-241.9674
0
VERTEX
8
1
10
-1612.6902
20
-249.7758
0
VERTEX
8
1
10
-1555.3443
20
-257.5965
0
VERTEX
8
1
10
-1498.0016
20
-265.4078
0
VERTEX
8
1
10
-1440.6501
20
-273.2204
0
VERTEX
8
1
10
-1383.2929
20
-281.0416
0
VERTEX
8
1
10
-1325.9337
20
-288.8651
0
VERTEX
8
1
10
-1268.5715
20
-296.6807
0
VERTEX
8
1
10
-1211.1993
20
-304.5034
0
VERTEX
8
1
10
-1153.8136
20
-312.3202
0
VERTEX
8
1
10
-1096.4192
20
-320.1525
0
VERTEX
8
1
10
-1039.0126
20
-327.9730
0
VERTEX
8
1
10
-981.5797
20
-335.8140
0
VERTEX
8
1
10
-924.1138
20
-343.6479
0
VERTEX
8
1
10
-866.6154
20
-351.4876
0
VERTEX
8
1
10
-809.0795
20
-359.3369
0
VERTEX
8
1
10
-751.4701
20
-367.1988
0
VERTEX
8
1
10
-693.7723
20
-375.0661
0
VERTEX
8
1
10
-635.9613
20
-382.9593
0
VERTEX
8
1
10
-577.9929
20
-390.8721
0
VERTEX
8
1
10
-519.7699
20
-398.8120
0
VERTEX
8
1
10
-461.1877
20
-406.7978
0
VERTEX
8
1
10
-402.0260
20
-414.8625
0
SEQEND
0
POLYLINE
8
2
62
1
66
1
6
CONTINUOUS
0
VERTEX
8
2
10
-400.0000
20
-400.0000
0
VERTEX
8
2
10
-459.1617
20
-391.9352
0
VERTEX
8
2
10
-517.7431
20
-383.9496
0
VERTEX
8
2
10
-575.9642
20
-376.0099
0
VERTEX
8
2
10
-633.9321
20
-368.0972
0
VERTEX
8
2
10
-691.7457
20
-360.2036
0
VERTEX
8
2
10
-749.4418
20
-352.3365
0
VERTEX
8
2
10
-807.0519
20
-344.4746
0
VERTEX
8
2
10
-864.5889
20
-336.6251
0
VERTEX
8
2
10
-922.0877
20
-328.7853
0
VERTEX
8
2
10
-979.5506
20
-320.9518
0
VERTEX
8
2
10
-1036.9878
20
-313.1103
0
VERTEX
8
2
10
-1094.3911
20
-305.2903
0
VERTEX
8
2
10
-1151.7891
20
-297.4575
0
VERTEX
8
2
10
-1209.1728
20
-289.6409
0
VERTEX
8
2
10
-1266.5465
20
-281.8180
0
VERTEX
8
2
10
-1323.9066
20
-274.0028
0
VERTEX
8
2
10
-1381.2662
20
-266.1791
0
VERTEX
8
2
10
-1438.6254
20
-258.3577
0
VERTEX
8
2
10
-1495.9770
20
-250.5451
0
VERTEX
8
2
10
-1553.3174
20
-242.7341
0
VERTEX
8
2
10
-1610.6666
20
-234.9129
0
VERTEX
8
2
10
-1668.0124
20
-227.1051
0
VERTEX
8
2
10
-1725.3611
20
-219.2807
0
VERTEX
8
2
10
-1782.6956
20
-211.4668
0
VERTEX
8
2
10
-1840.0399
20
-203.6596
0
VERTEX
8
2
10
-1897.3895
20
-195.8422
0
VERTEX
8
2
10
-1954.7389
20
-188.0224
0
SEQEND
0
POLYLINE
8
2
62
1
66
1
6
CONTINUOUS
0
VERTEX
8
2
10
-1957.2838
20
-202.8142
0
VERTEX
8
2
10
-1954.7389
20
-188.0224
0
VERTEX
8
2
10
-1937.2422
20
-86.3266
0
VERTEX
8
2
10
-1920.3507
20
11.8325
0
VERTEX
8
2
10
-1915.4517
20
40.2590
0
SEQEND
0
TEXT
8
2
62
1
10
-441.3892
20
-407.4772
40
12.0000
50
352.2360
1
1\9
0
ENDBLK
5
9
100
AcDbBlockEnd
0
BLOCK
5
10
100
AcDbEntity
8
1
100
AcDbBlockBegin
10
0
20
0
30
0
2
Panel10
70
0
3
Panel10
0
POLYLINE
8
1
62
0
66
1
6
CONTINUOUS
0
VERTEX
8
1
10
-2063.2578
20
-429.0135
0
VERTEX
8
1
10
-2037.9690
20
-429.4992
0
VERTEX
8
1
10
-1983.0651
20
-430.5537
0
VERTEX
8
1
10
-1916.0770
20
-431.8135
0
VERTEX
8
1
10
-1863.6755
20
-432.7566
0
VERTEX
8
1
10
-1807.6443
20
-433.7506
0
VERTEX
8
1
10
-1748.7279
20
-434.7284
0
VERTEX
8
1
10
-1690.4620
20
-435.6385
0
VERTEX
8
1
10
-1631.6061
20
-436.5024
0
VERTEX
8
1
10
-1572.2799
20
-437.3247
0
VERTEX
8
1
10
-1512.7026
20
-438.1130
0
VERTEX
8
1
10
-1452.7531
20
-438.8688
0
VERTEX
8
1
10
-1392.3674
20
-439.5849
0
VERTEX
8
1
10
-1331.5703
20
-440.2692
0
VERTEX
8
1
10
-1270.2940
20
-440.9421
0
VERTEX
8
1
10
-1208.5075
20
-441.5952
0
VERTEX
8
1
10
-1146.1596
20
-442.2300
0
VERTEX
8
1
10
-1083.1823
20
-442.8650
0
VERTEX
8
1
10
-1019.4956
20
-443.5175
0
VERTEX
8
1
10
-955.0088
20
-444.1618
0
VERTEX
8
1
10
-889.5822
20
-444.8275
0
VERTEX
8
1
10
-823.0760
20
-445.5316
0
VERTEX
8
1
10
-755.1353
20
-446.2572
0
VERTEX
8
1
10
-685.7177
20
-447.0372
0
VERTEX
8
1
10
-612.9647
20
-447.9035
0
VERTEX
8
1
10
-540.4073
20
-448.8165
0
VERTEX
8
1
10
-450.0000
20
-450.0000
0
SEQEND
0
POLYLINE
8
1
62
0
66
1
6
CONTINUOUS
0
VERTEX
8
1
10
-450.0000
20
-450.0000
0
VERTEX
8
1
10
-509.1621
20
-441.9384
0
VERTEX
8
1
10
-567.7431
20
-433.9495
0
VERTEX
8
1
10
-625.9595
20
-425.9918
0
VERTEX
8
1
10
-683.9252
20
-418.0629
0
VERTEX
8
1
10
-741.7349
20
-410.1504
0
VERTEX
8
1
10
-799.4270
20
-402.2628
0
VERTEX
8
1
10
-857.0331
20
-394.3716
0
VERTEX
8
1
10
-914.5649
20
-386.4895
0
VERTEX
8
1
10
-972.0581
20
-378.6089
0
VERTEX
8
1
10
-1029.5147
20
-370.7290
0
VERTEX
8
1
10
-1086.9427
20
-362.8405
0
VERTEX
8
1
10
-1144.3389
20
-354.9694
0
VERTEX
8
1
10
-1201.7279
20
-347.0823
0
VERTEX
8
1
10
-1259.1034
20
-339.2065
0
VERTEX
8
1
10
-1316.4687
20
-331.3215
0
VERTEX
8
1
10
-1373.8155
20
-323.4443
0
VERTEX
8
1
10
-1431.1661
20
-315.5542
0
VERTEX
8
1
10
-1488.5121
20
-307.6681
0
VERTEX
8
1
10
-1545.8542
20
-299.7867
0
VERTEX
8
1
10
-1603.1837
20
-291.9065
0
VERTEX
8
1
10
-1660.5213
20
-284.0155
0
VERTEX
8
1
10
-1717.8572
20
-276.1355
0
VERTEX
8
1
10
-1775.1922
20
-268.2395
0
VERTEX
8
1
10
-1832.5163
20
-260.3493
0
VERTEX
8
1
10
-1889.8497
20
-252.4632
0
VERTEX
8
1
10
-1947.1842
20
-244.5713
0
VERTEX
8
1
10
-2004.5212
20
-236.6736
0
VERTEX
8
1
10
-2029.3025
20
-233.2602
0
SEQEND
0
POLYLINE
8
1
62
0
66
1
6
CONTINUOUS
0
VERTEX
8
1
10
-2029.3025
20
-233.2602
0
VERTEX
8
1
10
-2063.2578
20
-429.0135
0
SEQEND
0
POLYLINE
8
2
62
1
66
1
6
CONTINUOUS
0
VERTEX
8
2
10
-2037.9690
20
-429.4992
0
VERTEX
8
2
10
-2020.9473
20
-331.3340
0
VERTEX
8
2
10
-2004.5212
20
-236.6736
0
SEQEND
0
TEXT
8
2
62
1
10
-1913.2279
20
-428.8944
40
12.0000
50
-1.1003
1
1\10
0
ENDBLK
5
10
100
AcDbBlockEnd
0
BLOCK
5
11
100
AcDbEntity
8
1
100
AcDbBlockBegin
10
0
20
0
30
0
2
Panel11
70
0
3
Panel11
0
POLYLINE
8
1
62
0
66
1
6
CONTINUOUS
0
VERTEX
8
1
10
-4376.7283
20
0.0000
0
VERTEX
8
1
10
-4345.4794
20
65.6770
0
VERTEX
8
1
10
-4314.2307
20
131.3641
0
VERTEX
8
1
10
-4282.9730
20
197.0468
0
VERTEX
8
1
10
-4251.7168
20
262.7276
0
VERTEX
8
1
10
-4220.4591
20
328.4089
0
VERTEX
8
1
10
-4189.1987
20
394.0763
0
VERTEX
8
1
10
-4157.9380
20
459.7535
0
VERTEX
8
1
10
-4126.6679
20
525.4295
0
VERTEX
8
1
10
-4095.4072
20
591.1054
0
VERTEX
8
1
10
-4064.1442
20
656.7773
0
VERTEX
8
1
10
-4032.8699
20
722.4486
0
VERTEX
8
1
10
-4001.6058
20
788.1087
0
VERTEX
8
1
10
-3970.3316
20
853.7759
0
VERTEX
8
1
10
-3939.0669
20
919.4402
0
VERTEX
8
1
10
-3907.7945
20
985.1014
0
VERTEX
8
1
10
-3876.5166
20
1050.7566
0
VERTEX
8
1
10
-3845.2466
20
1116.4060
0
VERTEX
8
1
10
-3813.9748
20
1182.0387
0
VERTEX
8
1
10
-3782.7053
20
1247.6725
0
VERTEX
8
1
10
-3751.4330
20
1313.2962
0
VERTEX
8
1
10
-3720.1603
20
1378.9099
0
VERTEX
8
1
10
-3688.9022
20
1444.5125
0
VERTEX
8
1
10
-3657.6415
20
1510.1036
0
VERTEX
8
1
10
-3626.3934
20
1575.6726
0
VERTEX
8
1
10
-3595.1383
20
1641.2372
0
VERTEX
8
1
10
-3563.8906
20
1706.7954
0
VERTEX
8
1
10
-3532.6366
20
1772.3520
0
VERTEX
8
1
10
-3501.3903
20
1837.9056
0
VERTEX
8
1
10
-3470.1404
20
1903.4568
0
VERTEX
8
1
10
-3438.8900
20
1968.9949
0
VERTEX
8
1
10
-3407.6401
20
2034.5404
0
VERTEX
8
1
10
-3376.3923
20
2100.0832
0
VERTEX
8
1
10
-3345.1493
20
2165.6224
0
VERTEX
8
1
10
-3313.8928
20
2231.1581
0
VERTEX
8
1
10
-3282.6534
20
2296.6907
0
VERTEX
8
1
10
-3251.4137
20
2362.2097
0
VERTEX
8
1
10
-3220.1649
20
2427.7359
0
VERTEX
8
1
10
-3188.9232
20
2493.2587
0
VERTEX
8
1
10
-3157.6866
20
2558.7785
0
VERTEX
8
1
10
-3126.4489
20
2624.2957
0
VERTEX
8
1
10
-3095.2215
20
2689.8108
0
VERTEX
8
1
10
-3083.4302
20
2714.5490
0
SEQEND
0
POLYLINE
8
1
62
0
66
1
6
CONTINUOUS
0
VERTEX
8
1
10
-3083.4302
20
2714.5490
0
VERTEX
8
1
10
-3490.7540
20
2723.8164
0
SEQEND
0
POLYLINE
8
1
62
0
66
1
6
CONTINUOUS
0
VERTEX
8
1
10
-3490.7540
20
2723.8164
0
VERTEX
8
1
10
-3498.9208
20
2698.9957
0
VERTEX
8
1
10
-3520.8179
20
2632.4456
0
VERTEX
8
1
10
-3541.7891
20
2568.9549
0
VERTEX
8
1
10
-3562.7413
20
2505.7631
0
VERTEX
8
1
10
-3584.5211
20
2440.2485
0
VERTEX
8
1
10
-3605.9459
20
2376.0491
0
VERTEX
8
1
10
-3627.5865
20
2311.4158
0
VERTEX
8
1
10
-3649.2537
20
2246.9073
0
VERTEX
8
1
10
-3670.9891
20
2182.4093
0
VERTEX
8
1
10
-3692.7895
20
2117.9352
0
VERTEX
8
1
10
-3714.6432
20
2053.4792
0
VERTEX
8
1
10
-3736.5618
20
1989.0428
0
VERTEX
8
1
10
-3758.5341
20
1924.6238
0
VERTEX
8
1
10
-3780.5681
20
1860.2292
0
VERTEX
8
1
10
-3802.6715
20
1795.8584
0
VERTEX
8
1
10
-3824.7908
20
1731.4824
0
VERTEX
8
1
10
-3847.0723
20
1667.1774
0
VERTEX
8
1
10
-3869.2921
20
1602.8466
0
VERTEX
8
1
10
-3890.0488
20
1534.5930
0
VERTEX
8
1
10
-3910.1805
20
1468.6994
0
VERTEX
8
1
10
-3930.6771
20
1401.8511
0
VERTEX
8
1
10
-3951.2859
20
1334.8963
0
VERTEX
8
1
10
-3971.9693
20
1267.9694
0
VERTEX
8
1
10
-3992.7209
20
1201.0533
0
VERTEX
8
1
10
-4013.5316
20
1134.1659
0
VERTEX
8
1
10
-4034.4181
20
1067.2917
0
VERTEX
8
1
10
-4055.3601
20
1000.4425
0
VERTEX
8
1
10
-4076.3770
20
933.6092
0
VERTEX
8
1
10
-4097.4457
20
866.8026
0
VERTEX
8
1
10
-4118.5749
20
800.0152
0
VERTEX
8
1
10
-4139.7752
20
733.2399
0
VERTEX
8
1
10
-4161.0343
20
666.4911
0
VERTEX
8
1
10
-4182.3528
20
599.7638
0
VERTEX
8
1
10
-4203.7273
20
533.0440
0
VERTEX
8
1
10
-4225.1595
20
466.3523
0
VERTEX
8
1
10
-4246.6406
20
399.6728
0
VERTEX
8
1
10
-4268.1974
20
333.0179
0
VERTEX
8
1
10
-4289.7976
20
266.3814
0
VERTEX
8
1
10
-4311.4442
20
199.7598
0
VERTEX
8
1
10
-4333.1257
20
133.2832
0
VERTEX
8
1
10
-4354.4884
20
67.8418
0
VERTEX
8
1
10
-4376.7283
20
0.0000
0
SEQEND
0
POLYLINE
8
2
62
1
66
1
6
CONTINUOUS
0
VERTEX
8
2
10
-3095.2215
20
2689.8108
0
VERTEX
8
2
10
-3498.9208
20
2698.9957
0
SEQEND
0
TEXT
8
2
62
1
10
-4345.4532
20
95.8690
40
12.0000
50
-115.4746
1
1b\1
0
POLYLINE
8
2
62
1
66
1
6
CONTINUOUS
0
VERTEX
8
2
10
-3668.2645
20
1596.5929
0
VERTEX
8
2
10
-3768.7794
20
1599.7347
0
SEQEND
0
POLYLINE
8
2
62
1
66
1
6
CONTINUOUS
0
VERTEX
8
2
10
-3869.2921
20
1602.8466
0
VERTEX
8
2
10
-3859.7247
20
1599.9371
0
SEQEND
0
POLYLINE
8
2
62
1
66
1
6
CONTINUOUS
0
VERTEX
8
2
10
-4016.8849
20
1123.4294
0
VERTEX
8
2
10
-3969.1585
20
1108.5232
0
SEQEND
0
POLYLINE
8
2
62
1
66
1
6
CONTINUOUS
0
VERTEX
8
2
10
-3650.0468
20
2244.5539
0
VERTEX
8
2
10
-3602.6649
20
2228.5865
0
SEQEND
0
TEXT
8
2
62
1
10
-3877.0798
20
1579.0906
40
12.0000
50
-111.8371
1
4
0
TEXT
8
2
62
1
10
-4037.1329
20
1061.6636
40
12.0000
50
-111.8371
1
R1
0
TEXT
8
2
62
1
10
-3670.2948
20
2182.7881
40
12.0000
50
-111.8371
1
R2
0
ENDBLK
5
11
100
AcDbBlockEnd
0
BLOCK
5
12
100
AcDbEntity
8
1
100
AcDbBlockBegin
10
0
20
0
30
0
2
Panel12
70
0
3
Panel12
0
POLYLINE
8
1
62
0
66
1
6
CONTINUOUS
0
VERTEX
8
1
10
-4326.7283
20
-50.0000
0
VERTEX
8
1
10
-4313.1819
20
-56.4417
0
SEQEND
0
POLYLINE
8
1
62
0
66
1
6
CONTINUOUS
0
VERTEX
8
1
10
-4313.1819
20
-56.4417
0
VERTEX
8
1
10
-4260.6397
20
27.3877
0
VERTEX
8
1
10
-4208.0896
20
111.2273
0
VERTEX
8
1
10
-4155.5273
20
195.0698
0
VERTEX
8
1
10
-4102.9440
20
278.9337
0
VERTEX
8
1
10
-4050.3656
20
362.7970
0
VERTEX
8
1
10
-3997.7746
20
446.6712
0
VERTEX
8
1
10
-3945.1701
20
530.5559
0
VERTEX
8
1
10
-3892.5505
20
614.4602
0
VERTEX
8
1
10
-3839.9393
20
698.3619
0
VERTEX
8
1
10
-3787.3157
20
782.2671
0
VERTEX
8
1
10
-3734.6861
20
866.1734
0
VERTEX
8
1
10
-3682.0469
20
950.0883
0
VERTEX
8
1
10
-3629.4279
20
1033.9850
0
VERTEX
8
1
10
-3576.8093
20
1117.8689
0
VERTEX
8
1
10
-3524.2005
20
1201.7365
0
VERTEX
8
1
10
-3471.6008
20
1285.5934
0
VERTEX
8
1
10
-3419.0212
20
1369.4173
0
VERTEX
8
1
10
-3366.4594
20
1453.2170
0
VERTEX
8
1
10
-3313.9211
20
1536.9927
0
VERTEX
8
1
10
-3261.3913
20
1620.7588
0
VERTEX
8
1
10
-3208.8735
20
1704.5074
0
VERTEX
8
1
10
-3156.3628
20
1788.2455
0
VERTEX
8
1
10
-3103.8660
20
1871.9727
0
VERTEX
8
1
10
-3051.3703
20
1955.6969
0
VERTEX
8
1
10
-2998.8996
20
2039.3970
0
VERTEX
8
1
10
-2946.4399
20
2123.0813
0
VERTEX
8
1
10
-2894.0032
20
2206.7498
0
VERTEX
8
1
10
-2841.5855
20
2290.4104
0
VERTEX
8
1
10
-2789.1960
20
2374.0439
0
VERTEX
8
1
10
-2736.8261
20
2457.6592
0
VERTEX
8
1
10
-2684.4955
20
2541.2573
0
VERTEX
8
1
10
-2632.1810
20
2624.8487
0
VERTEX
8
1
10
-2616.7520
20
2649.5021
0
SEQEND
0
POLYLINE
8
1
62
0
66
1
6
CONTINUOUS
0
VERTEX
8
1
10
-2616.7520
20
2649.5021
0
VERTEX
8
1
10
-3021.1879
20
2658.7607
0
VERTEX
8
1
10
-3037.6251
20
2659.1370
0
SEQEND
0
POLYLINE
8
1
62
0
66
1
6
CONTINUOUS
0
VERTEX
8
1
10
-3037.6251
20
2659.1370
0
VERTEX
8
1
10
-3086.5296
20
2556.5246
0
VERTEX
8
1
10
-3126.5357
20
2472.5681
0
VERTEX
8
1
10
-3166.5331
20
2388.6056
0
VERTEX
8
1
10
-3206.5231
20
2304.6292
0
VERTEX
8
1
10
-3246.5015
20
2220.6469
0
VERTEX
8
1
10
-3286.4826
20
2136.6573
0
VERTEX
8
1
10
-3326.4590
20
2052.6601
0
VERTEX
8
1
10
-3366.4348
20
1968.6564
0
VERTEX
8
1
10
-3406.4081
20
1884.6476
0
VERTEX
8
1
10
-3446.3873
20
1800.6348
0
VERTEX
8
1
10
-3486.3692
20
1716.6069
0
VERTEX
8
1
10
-3526.3427
20
1632.5793
0
VERTEX
8
1
10
-3566.3235
20
1548.5558
0
VERTEX
8
1
10
-3606.3018
20
1464.5073
0
VERTEX
8
1
10
-3646.2915
20
1380.4422
0
VERTEX
8
1
10
-3686.2870
20
1296.3582
0
VERTEX
8
1
10
-3726.2918
20
1212.2580
0
VERTEX
8
1
10
-3766.3066
20
1128.1409
0
VERTEX
8
1
10
-3806.3267
20
1044.0142
0
VERTEX
8
1
10
-3846.3466
20
959.8762
0
VERTEX
8
1
10
-3886.3766
20
875.7341
0
VERTEX
8
1
10
-3926.4076
20
791.5765
0
VERTEX
8
1
10
-3966.4428
20
707.4257
0
VERTEX
8
1
10
-4006.4701
20
623.2681
0
VERTEX
8
1
10
-4046.5080
20
539.1173
0
VERTEX
8
1
10
-4086.5387
20
454.9616
0
VERTEX
8
1
10
-4126.5705
20
370.8080
0
VERTEX
8
1
10
-4166.6051
20
286.6529
0
VERTEX
8
1
10
-4206.6477
20
202.4944
0
VERTEX
8
1
10
-4246.6817
20
118.3360
0
VERTEX
8
1
10
-4286.7055
20
34.1649
0
VERTEX
8
1
10
-4326.7283
20
-50.0000
0
SEQEND
0
POLYLINE
8
2
62
1
66
1
6
CONTINUOUS
0
VERTEX
8
2
10
-2632.1810
20
2624.8487
0
VERTEX
8
2
10
-3032.9773
20
2634.0240
0
SEQEND
0
POLYLINE
8
2
62
1
66
1
6
CONTINUOUS
0
VERTEX
8
2
10
-4313.1819
20
-56.4417
0
VERTEX
8
2
10
-4273.1590
20
27.7234
0
VERTEX
8
2
10
-4233.1362
20
111.8924
0
VERTEX
8
2
10
-4193.1027
20
196.0497
0
VERTEX
8
2
10
-4153.0597
20
280.2091
0
VERTEX
8
2
10
-4113.0250
20
364.3645
0
VERTEX
8
2
10
-4072.9930
20
448.5183
0
VERTEX
8
2
10
-4032.9630
20
532.6728
0
VERTEX
8
2
10
-3992.9242
20
616.8254
0
VERTEX
8
2
10
-3952.8976
20
700.9815
0
VERTEX
8
2
10
-3912.8619
20
785.1332
0
VERTEX
8
2
10
-3872.8313
20
869.2900
0
VERTEX
8
2
10
-3832.8008
20
953.4332
0
VERTEX
8
2
10
-3792.7813
20
1037.5705
0
VERTEX
8
2
10
-3752.7611
20
1121.6973
0
VERTEX
8
2
10
-3712.7462
20
1205.8146
0
VERTEX
8
2
10
-3672.7413
20
1289.9151
0
VERTEX
8
2
10
-3632.7460
20
1373.9987
0
VERTEX
8
2
10
-3592.7561
20
1458.0642
0
VERTEX
8
2
10
-3552.7787
20
1542.1108
0
VERTEX
8
2
10
-3512.7974
20
1626.1355
0
VERTEX
8
2
10
-3472.8243
20
1710.1620
0
VERTEX
8
2
10
-3432.8427
20
1794.1894
0
VERTEX
8
2
10
-3392.8633
20
1878.2027
0
VERTEX
8
2
10
-3352.8902
20
1962.2108
0
VERTEX
8
2
10
-3312.9147
20
2046.2140
0
VERTEX
8
2
10
-3272.9388
20
2130.2101
0
VERTEX
8
2
10
-3232.9578
20
2214.1997
0
VERTEX
8
2
10
-3192.9803
20
2298.1800
0
VERTEX
8
2
10
-3152.9912
20
2382.1546
0
VERTEX
8
2
10
-3112.9945
20
2466.1156
0
VERTEX
8
2
10
-3072.9888
20
2550.0712
0
VERTEX
8
2
10
-3032.9773
20
2634.0240
0
VERTEX
8
2
10
-3021.1879
20
2658.7607
0
SEQEND
0
TEXT
8
2
62
1
10
-4307.7354
20
-14.7400
40
12.0000
50
244.5532
1
1b\2
0
ENDBLK
5
12
100
AcDbBlockEnd
0
BLOCK
5
13
100
AcDbEntity
8
1
100
AcDbBlockBegin
10
0
20
0
30
0
2
Panel13
70
0
3
Panel13
0
POLYLINE
8
1
62
0
66
1
6
CONTINUOUS
0
VERTEX
8
1
10
-4276.7283
20
-100.0000
0
VERTEX
8
1
10
-4264.0197
20
-107.9681
0
SEQEND
0
POLYLINE
8
1
62
0
66
1
6
CONTINUOUS
0
VERTEX
8
1
10
-4264.0197
20
-107.9681
0
VERTEX
8
1
10
-4200.2118
20
-32.1473
0
VERTEX
8
1
10
-4136.3746
20
43.7079
0
VERTEX
8
1
10
-4072.5151
20
119.5890
0
VERTEX
8
1
10
-4008.6238
20
195.4892
0
VERTEX
8
1
10
-3944.7178
20
271.4135
0
VERTEX
8
1
10
-3880.7815
20
347.3597
0
VERTEX
8
1
10
-3816.8179
20
423.3293
0
VERTEX
8
1
10
-3752.8401
20
499.3184
0
VERTEX
8
1
10
-3688.8618
20
575.3130
0
VERTEX
8
1
10
-3624.8553
20
651.3290
0
VERTEX
8
1
10
-3560.8532
20
727.3482
0
VERTEX
8
1
10
-3496.8344
20
803.3643
0
VERTEX
8
1
10
-3432.8427
20
879.3677
0
VERTEX
8
1
10
-3368.8673
20
955.3530
0
VERTEX
8
1
10
-3304.9141
20
1031.3101
0
VERTEX
8
1
10
-3240.9993
20
1107.2347
0
VERTEX
8
1
10
-3177.1232
20
1183.1119
0
VERTEX
8
1
10
-3113.2802
20
1258.9584
0
VERTEX
8
1
10
-3049.4950
20
1334.7626
0
VERTEX
8
1
10
-2985.7451
20
1410.5259
0
VERTEX
8
1
10
-2922.0514
20
1486.2481
0
VERTEX
8
1
10
-2858.3934
20
1561.9344
0
VERTEX
8
1
10
-2794.7816
20
1637.5839
0
VERTEX
8
1
10
-2731.2060
20
1713.1918
0
VERTEX
8
1
10
-2667.7053
20
1788.7438
0
VERTEX
8
1
10
-2604.2344
20
1864.2580
0
VERTEX
8
1
10
-2540.8278
20
1939.7211
0
VERTEX
8
1
10
-2477.4859
20
2015.1311
0
VERTEX
8
1
10
-2414.1974
20
2090.4862
0
VERTEX
8
1
10
-2350.9887
20
2165.7850
0
VERTEX
8
1
10
-2287.8359
20
2241.0291
0
VERTEX
8
1
10
-2224.7613
20
2316.2175
0
SEQEND
0
POLYLINE
8
1
62
0
66
1
6
CONTINUOUS
0
VERTEX
8
1
10
-2224.7613
20
2316.2175
0
VERTEX
8
1
10
-2215.6649
20
2367.8483
0
VERTEX
8
1
10
-2198.6082
20
2464.8579
0
VERTEX
8
1
10
-2181.5691
20
2561.8598
0
VERTEX
8
1
10
-2177.1963
20
2586.7532
0
SEQEND
0
POLYLINE
8
1
62
0
66
1
6
CONTINUOUS
0
VERTEX
8
1
10
-2177.1963
20
2586.7532
0
VERTEX
8
1
10
-2565.9464
20
2596.9981
0
VERTEX
8
1
10
-2583.3882
20
2597.4577
0
SEQEND
0
POLYLINE
8
1
62
0
66
1
6
CONTINUOUS
0
VERTEX
8
1
10
-2583.3882
20
2597.4577
0
VERTEX
8
1
10
-2642.2219
20
2504.1263
0
VERTEX
8
1
10
-2690.2903
20
2427.8328
0
VERTEX
8
1
10
-2738.3586
20
2351.4911
0
VERTEX
8
1
10
-2786.4297
20
2275.1311
0
VERTEX
8
1
10
-2834.4881
20
2198.7442
0
VERTEX
8
1
10
-2882.5448
20
2122.3206
0
VERTEX
8
1
10
-2930.5988
20
2045.8780
0
VERTEX
8
1
10
-2978.6510
20
1969.4102
0
VERTEX
8
1
10
-3026.7094
20
1892.9116
0
VERTEX
8
1
10
-3074.7618
20
1816.4095
0
VERTEX
8
1
10
-3122.8185
20
1739.8869
0
VERTEX
8
1
10
-3170.8743
20
1663.3389
0
VERTEX
8
1
10
-3218.9257
20
1586.7899
0
VERTEX
8
1
10
-3266.9820
20
1510.2331
0
VERTEX
8
1
10
-3315.0399
20
1433.6486
0
VERTEX
8
1
10
-3363.1039
20
1357.0472
0
VERTEX
8
1
10
-3411.1783
20
1280.4180
0
VERTEX
8
1
10
-3459.2609
20
1203.7559
0
VERTEX
8
1
10
-3507.3359
20
1127.0781
0
VERTEX
8
1
10
-3555.4272
20
1050.3887
0
VERTEX
8
1
10
-3603.5298
20
973.6711
0
VERTEX
8
1
10
-3651.6365
20
896.9571
0
VERTEX
8
1
10
-3699.7418
20
820.2367
0
VERTEX
8
1
10
-3747.8485
20
743.5058
0
VERTEX
8
1
10
-3795.9540
20
666.7876
0
VERTEX
8
1
10
-3844.0527
20
590.0748
0
VERTEX
8
1
10
-3892.1531
20
513.3565
0
VERTEX
8
1
10
-3940.2523
20
436.6616
0
VERTEX
8
1
10
-3988.3349
20
359.9725
0
VERTEX
8
1
10
-4036.4261
20
283.2858
0
VERTEX
8
1
10
-4084.5052
20
206.6129
0
VERTEX
8
1
10
-4132.5667
20
129.9514
0
VERTEX
8
1
10
-4180.6314
20
53.2815
0
VERTEX
8
1
10
-4228.6788
20
-23.3646
0
VERTEX
8
1
10
-4276.7283
20
-100.0000
0
SEQEND
0
POLYLINE
8
2
62
1
66
1
6
CONTINUOUS
0
VERTEX
8
2
10
-2181.5691
20
2561.8598
0
VERTEX
8
2
10
-2581.4536
20
2572.3981
0
SEQEND
0
POLYLINE
8
2
62
1
66
1
6
CONTINUOUS
0
VERTEX
8
2
10
-4264.0197
20
-107.9681
0
VERTEX
8
2
10
-4215.9695
20
-31.3317
0
VERTEX
8
2
10
-4167.9224
20
45.3141
0
VERTEX
8
2
10
-4119.8578
20
121.9837
0
VERTEX
8
2
10
-4071.7971
20
198.6440
0
VERTEX
8
2
10
-4023.7182
20
275.3165
0
VERTEX
8
2
10
-3975.6262
20
352.0044
0
VERTEX
8
2
10
-3927.5446
20
428.6920
0
VERTEX
8
2
10
-3879.4444
20
505.3885
0
VERTEX
8
2
10
-3831.3441
20
582.1066
0
VERTEX
8
2
10
-3783.2457
20
658.8190
0
VERTEX
8
2
10
-3735.1397
20
735.5380
0
VERTEX
8
2
10
-3687.0334
20
812.2683
0
VERTEX
8
2
10
-3638.9285
20
888.9880
0
VERTEX
8
2
10
-3590.8213
20
965.7027
0
VERTEX
8
2
10
-3542.7191
20
1042.4196
0
VERTEX
8
2
10
-3494.6273
20
1119.1101
0
VERTEX
8
2
10
-3446.5535
20
1195.7858
0
VERTEX
8
2
10
-3398.4718
20
1272.4464
0
VERTEX
8
2
10
-3350.3980
20
1349.0748
0
VERTEX
8
2
10
-3302.3344
20
1425.6757
0
VERTEX
8
2
10
-3254.2775
20
1502.2583
0
VERTEX
8
2
10
-3206.2213
20
1578.8151
0
VERTEX
8
2
10
-3158.1703
20
1655.3634
0
VERTEX
8
2
10
-3110.1157
20
1731.9095
0
VERTEX
8
2
10
-3062.0597
20
1808.4310
0
VERTEX
8
2
10
-3014.0079
20
1884.9321
0
VERTEX
8
2
10
-2965.9505
20
1961.4292
0
VERTEX
8
2
10
-2917.8996
20
2037.8949
0
VERTEX
8
2
10
-2869.8467
20
2114.3358
0
VERTEX
8
2
10
-2821.7919
20
2190.7564
0
VERTEX
8
2
10
-2773.7357
20
2267.1398
0
VERTEX
8
2
10
-2725.6653
20
2343.4988
0
VERTEX
8
2
10
-2677.5992
20
2419.8368
0
VERTEX
8
2
10
-2629.5327
20
2496.1273
0
VERTEX
8
2
10
-2581.4536
20
2572.3981
0
VERTEX
8
2
10
-2565.9464
20
2596.9981
0
SEQEND
0
TEXT
8
2
62
1
10
-4253.7672
20
-67.1855
40
12.0000
50
237.8810
1
1b\3
0
POLYLINE
8
2
62
1
66
1
6
CONTINUOUS
0
VERTEX
8
2
10
-2679.9645
20
2111.2272
0
VERTEX
8
2
10
-2699.9542
20
2111.8680
0
SEQEND
0
POLYLINE
8
2
62
1
66
1
6
CONTINUOUS
0
VERTEX
8
2
10
-2690.1196
20
2106.5501
0
VERTEX
8
2
10
-2689.7991
20
2116.5450
0
SEQEND
0
ENDBLK
5
13
100
AcDbBlockEnd
0
BLOCK
5
14
100
AcDbEntity
8
1
100
AcDbBlockBegin
10
0
20
0
30
0
2
Panel14
70
0
3
Panel14
0
POLYLINE
8
1
62
0
66
1
6
CONTINUOUS
0
VERTEX
8
1
10
-4238.2051
20
-140.3418
0
VERTEX
8
1
10
-4226.7283
20
-150.0000
0
SEQEND
0
POLYLINE
8
1
62
0
66
1
6
CONTINUOUS
0
VERTEX
8
1
10
-4226.7283
20
-150.0000
0
VERTEX
8
1
10
-4154.8136
20
-81.0365
0
VERTEX
8
1
10
-4082.8608
20
-12.0374
0
VERTEX
8
1
10
-4010.8568
20
56.9936
0
VERTEX
8
1
10
-3938.8198
20
126.0509
0
VERTEX
8
1
10
-3866.7494
20
195.1377
0
VERTEX
8
1
10
-3794.6232
20
264.2667
0
VERTEX
8
1
10
-3722.4766
20
333.4130
0
VERTEX
8
1
10
-3650.3124
20
402.5840
0
VERTEX
8
1
10
-3578.1178
20
471.7826
0
VERTEX
8
1
10
-3505.9108
20
540.9802
0
VERTEX
8
1
10
-3433.7005
20
610.1864
0
VERTEX
8
1
10
-3361.5138
20
679.3708
0
VERTEX
8
1
10
-3289.3444
20
748.5318
0
VERTEX
8
1
10
-3217.2142
20
817.6693
0
VERTEX
8
1
10
-3145.1368
20
886.7510
0
VERTEX
8
1
10
-3073.1181
20
955.7770
0
VERTEX
8
1
10
-3001.1631
20
1024.7506
0
VERTEX
8
1
10
-2929.2970
20
1093.6467
0
VERTEX
8
1
10
-2857.5062
20
1162.4837
0
VERTEX
8
1
10
-2785.8065
20
1231.2394
0
VERTEX
8
1
10
-2714.2026
20
1299.9207
0
VERTEX
8
1
10
-2642.6644
20
1368.5384
0
VERTEX
8
1
10
-2571.2413
20
1437.0724
0
VERTEX
8
1
10
-2499.9108
20
1505.5308
0
VERTEX
8
1
10
-2428.6491
20
1573.9175
0
VERTEX
8
1
10
-2357.5015
20
1642.2098
0
VERTEX
8
1
10
-2286.4417
20
1710.4257
0
SEQEND
0
POLYLINE
8
1
62
0
66
1
6
CONTINUOUS
0
VERTEX
8
1
10
-2286.4417
20
1710.4257
0
VERTEX
8
1
10
-2280.7807
20
1741.8840
0
VERTEX
8
1
10
-2263.3114
20
1838.9701
0
VERTEX
8
1
10
-2245.8559
20
1936.0424
0
VERTEX
8
1
10
-2228.4104
20
2033.0795
0
VERTEX
8
1
10
-2210.9705
20
2130.1031
0
VERTEX
8
1
10
-2193.5297
20
2227.0929
0
VERTEX
8
1
10
-2185.3728
20
2272.4701
0
VERTEX
8
1
10
-2180.0673
20
2301.9848
0
SEQEND
0
POLYLINE
8
1
62
0
66
1
6
CONTINUOUS
0
VERTEX
8
1
10
-2180.0673
20
2301.9848
0
VERTEX
8
1
10
-2256.4547
20
2211.6055
0
VERTEX
8
1
10
-2316.1135
20
2140.9750
0
VERTEX
8
1
10
-2375.8189
20
2070.2844
0
VERTEX
8
1
10
-2435.5558
20
1999.5403
0
VERTEX
8
1
10
-2495.3351
20
1928.7267
0
VERTEX
8
1
10
-2555.1561
20
1857.8521
0
VERTEX
8
1
10
-2615.0078
20
1786.9265
0
VERTEX
8
1
10
-2674.8985
20
1715.9319
0
VERTEX
8
1
10
-2734.8223
20
1644.8866
0
VERTEX
8
1
10
-2794.7751
20
1573.7879
0
VERTEX
8
1
10
-2854.7470
20
1502.6537
0
VERTEX
8
1
10
-2914.7592
20
1431.4752
0
VERTEX
8
1
10
-2974.7827
20
1360.2487
0
VERTEX
8
1
10
-3034.8383
20
1288.9867
0
VERTEX
8
1
10
-3094.9313
20
1217.6663
0
VERTEX
8
1
10
-3155.0521
20
1146.2996
0
VERTEX
8
1
10
-3215.1904
20
1074.8990
0
VERTEX
8
1
10
-3275.3621
20
1003.4494
0
VERTEX
8
1
10
-3335.5621
20
931.9591
0
VERTEX
8
1
10
-3395.7739
20
860.4382
0
VERTEX
8
1
10
-3455.9966
20
788.9136
0
VERTEX
8
1
10
-3516.2256
20
717.3642
0
VERTEX
8
1
10
-3576.4601
20
645.8102
0
VERTEX
8
1
10
-3636.6917
20
574.2686
0
VERTEX
8
1
10
-3696.9146
20
502.7174
0
VERTEX
8
1
10
-3757.1379
20
431.1849
0
VERTEX
8
1
10
-3817.3430
20
359.6693
0
VERTEX
8
1
10
-3877.5175
20
288.1832
0
VERTEX
8
1
10
-3937.6881
20
216.7094
0
VERTEX
8
1
10
-3997.8371
20
145.2546
0
VERTEX
8
1
10
-4057.9609
20
73.8321
0
VERTEX
8
1
10
-4118.0749
20
2.4235
0
VERTEX
8
1
10
-4178.1510
20
-68.9795
0
VERTEX
8
1
10
-4238.2051
20
-140.3418
0
SEQEND
0
POLYLINE
8
2
62
1
66
1
6
CONTINUOUS
0
VERTEX
8
2
10
-4226.7283
20
-150.0000
0
VERTEX
8
2
10
-4166.6731
20
-78.6366
0
VERTEX
8
2
10
-4106.5997
20
-7.2367
0
VERTEX
8
2
10
-4046.4856
20
64.1721
0
VERTEX
8
2
10
-3986.3616
20
135.5947
0
VERTEX
8
2
10
-3926.2131
20
207.0490
0
VERTEX
8
2
10
-3866.0419
20
278.5235
0
VERTEX
8
2
10
-3805.8679
20
350.0090
0
VERTEX
8
2
10
-3745.6631
20
421.5242
0
VERTEX
8
2
10
-3685.4385
20
493.0582
0
VERTEX
8
2
10
-3625.2169
20
564.6079
0
VERTEX
8
2
10
-3564.9847
20
636.1502
0
VERTEX
8
2
10
-3504.7501
20
707.7043
0
VERTEX
8
2
10
-3444.5222
20
779.2524
0
VERTEX
8
2
10
-3384.2989
20
850.7777
0
VERTEX
8
2
10
-3324.0882
20
922.2973
0
VERTEX
8
2
10
-3263.8887
20
993.7871
0
VERTEX
8
2
10
-3203.7176
20
1065.2359
0
VERTEX
8
2
10
-3143.5802
20
1136.6355
0
VERTEX
8
2
10
-3083.4603
20
1208.0011
0
VERTEX
8
2
10
-3023.3683
20
1279.3203
0
VERTEX
8
2
10
-2963.3125
20
1350.5826
0
VERTEX
8
2
10
-2903.2913
20
1421.8063
0
VERTEX
8
2
10
-2843.2788
20
1492.9852
0
VERTEX
8
2
10
-2783.3079
20
1564.1183
0
VERTEX
8
2
10
-2723.3563
20
1635.2155
0
VERTEX
8
2
10
-2663.4332
20
1706.2599
0
VERTEX
8
2
10
-2603.5440
20
1777.2527
0
VERTEX
8
2
10
-2543.6934
20
1848.1771
0
VERTEX
8
2
10
-2483.8732
20
1919.0508
0
VERTEX
8
2
10
-2424.0952
20
1989.8628
0
VERTEX
8
2
10
-2364.3594
20
2060.6056
0
VERTEX
8
2
10
-2304.6543
20
2131.2958
0
VERTEX
8
2
10
-2244.9984
20
2201.9229
0
VERTEX
8
2
10
-2185.3728
20
2272.4701
0
SEQEND
0
TEXT
8
2
62
1
10
-4210.9001
20
-111.0427
40
12.0000
50
229.8800
1
1b\4
0
ENDBLK
5
14
100
AcDbBlockEnd
0
BLOCK
5
15
100
AcDbEntity
8
1
100
AcDbBlockBegin
10
0
20
0
30
0
2
Panel15
70
0
3
Panel15
0
POLYLINE
8
1
62
0
66
1
6
CONTINUOUS
0
VERTEX
8
1
10
-4187.1062
20
-189.1696
0
VERTEX
8
1
10
-4176.7283
20
-200.0000
0
SEQEND
0
POLYLINE
8
1
62
0
66
1
6
CONTINUOUS
0
VERTEX
8
1
10
-4176.7283
20
-200.0000
0
VERTEX
8
1
10
-4096.0314
20
-139.3447
0
VERTEX
8
1
10
-4015.2881
20
-78.6631
0
VERTEX
8
1
10
-3934.5017
20
-17.9475
0
VERTEX
8
1
10
-3853.6690
20
42.7708
0
VERTEX
8
1
10
-3772.7996
20
103.5279
0
VERTEX
8
1
10
-3691.8959
20
164.3002
0
VERTEX
8
1
10
-3610.9586
20
225.1000
0
VERTEX
8
1
10
-3530.0065
20
285.8989
0
VERTEX
8
1
10
-3449.0312
20
346.7098
0
VERTEX
8
1
10
-3368.0535
20
407.5325
0
VERTEX
8
1
10
-3287.0862
20
468.3441
0
VERTEX
8
1
10
-3206.1425
20
529.1355
0
VERTEX
8
1
10
-3125.2387
20
589.8936
0
VERTEX
8
1
10
-3044.3866
20
650.6219
0
VERTEX
8
1
10
-2963.5973
20
711.3055
0
VERTEX
8
1
10
-2882.8832
20
771.9352
0
VERTEX
8
1
10
-2802.2251
20
832.5375
0
VERTEX
8
1
10
-2721.6296
20
893.0973
0
VERTEX
8
1
10
-2641.0885
20
953.6302
0
VERTEX
8
1
10
-2560.5911
20
1014.1413
0
VERTEX
8
1
10
-2480.1221
20
1074.6474
0
VERTEX
8
1
10
-2399.6649
20
1135.1490
0
VERTEX
8
1
10
-2319.2012
20
1195.6746
0
SEQEND
0
POLYLINE
8
1
62
0
66
1
6
CONTINUOUS
0
VERTEX
8
1
10
-2319.2012
20
1195.6746
0
VERTEX
8
1
10
-2317.6149
20
1204.3615
0
VERTEX
8
1
10
-2299.8470
20
1301.5461
0
VERTEX
8
1
10
-2282.0862
20
1398.6916
0
VERTEX
8
1
10
-2264.3285
20
1495.8201
0
VERTEX
8
1
10
-2246.5785
20
1592.9109
0
VERTEX
8
1
10
-2234.5820
20
1658.5423
0
VERTEX
8
1
10
-2229.9893
20
1683.6686
0
SEQEND
0
POLYLINE
8
1
62
0
66
1
6
CONTINUOUS
0
VERTEX
8
1
10
-2229.9893
20
1683.6686
0
VERTEX
8
1
10
-2311.2672
20
1606.0543
0
VERTEX
8
1
10
-2377.6659
20
1542.6459
0
VERTEX
8
1
10
-2444.1317
20
1479.1466
0
VERTEX
8
1
10
-2510.6912
20
1415.5625
0
VERTEX
8
1
10
-2577.3082
20
1351.9133
0
VERTEX
8
1
10
-2643.9826
20
1288.1838
0
VERTEX
8
1
10
-2710.7390
20
1224.3697
0
VERTEX
8
1
10
-2777.5391
20
1160.4901
0
VERTEX
8
1
10
-2844.4156
20
1096.5370
0
VERTEX
8
1
10
-2911.3580
20
1032.4944
0
VERTEX
8
1
10
-2978.3558
20
968.3960
0
VERTEX
8
1
10
-3045.4135
20
904.2307
0
VERTEX
8
1
10
-3112.5206
20
839.9938
0
VERTEX
8
1
10
-3179.6711
20
775.7092
0
VERTEX
8
1
10
-3246.8589
20
711.3855
0
VERTEX
8
1
10
-3314.0694
20
647.0265
0
VERTEX
8
1
10
-3381.3206
20
582.6318
0
VERTEX
8
1
10
-3448.5648
20
518.2350
0
VERTEX
8
1
10
-3515.8191
20
453.8285
0
VERTEX
8
1
10
-3583.0645
20
389.4242
0
VERTEX
8
1
10
-3650.2935
20
325.0457
0
VERTEX
8
1
10
-3717.4949
20
260.6835
0
VERTEX
8
1
10
-3784.6895
20
196.3309
0
VERTEX
8
1
10
-3851.8356
20
132.0117
0
VERTEX
8
1
10
-3918.9602
20
67.7282
0
VERTEX
8
1
10
-3986.0595
20
3.4623
0
VERTEX
8
1
10
-4053.1160
20
-60.7773
0
VERTEX
8
1
10
-4120.1287
20
-124.9905
0
VERTEX
8
1
10
-4187.1062
20
-189.1696
0
SEQEND
0
POLYLINE
8
2
62
1
66
1
6
CONTINUOUS
0
VERTEX
8
2
10
-4176.7283
20
-200.0000
0
VERTEX
8
2
10
-4109.7507
20
-135.8209
0
VERTEX
8
2
10
-4042.7393
20
-71.6090
0
VERTEX
8
2
10
-3975.6841
20
-7.3705
0
VERTEX
8
2
10
-3908.5854
20
56.8948
0
VERTEX
8
2
10
-3841.4595
20
121.1795
0
VERTEX
8
2
10
-3774.3144
20
185.4977
0
VERTEX
8
2
10
-3707.1196
20
249.8505
0
VERTEX
8
2
10
-3639.9190
20
314.2119
0
VERTEX
8
2
10
-3572.6893
20
378.5912
0
VERTEX
8
2
10
-3505.4443
20
442.9950
0
VERTEX
8
2
10
-3438.1901
20
507.4015
0
VERTEX
8
2
10
-3370.9466
20
571.7976
0
VERTEX
8
2
10
-3303.6951
20
636.1926
0
VERTEX
8
2
10
-3236.4857
20
700.5505
0
VERTEX
8
2
10
-3169.2982
20
764.8739
0
VERTEX
8
2
10
-3102.1483
20
829.1580
0
VERTEX
8
2
10
-3035.0432
20
893.3930
0
VERTEX
8
2
10
-2967.9863
20
957.5575
0
VERTEX
8
2
10
-2900.9888
20
1021.6556
0
VERTEX
8
2
10
-2834.0486
20
1085.6961
0
VERTEX
8
2
10
-2767.1721
20
1149.6492
0
VERTEX
8
2
10
-2700.3741
20
1213.5269
0
VERTEX
8
2
10
-2633.6182
20
1277.3405
0
VERTEX
8
2
10
-2566.9459
20
1341.0678
0
VERTEX
8
2
10
-2500.3298
20
1404.7162
0
VERTEX
8
2
10
-2433.7699
20
1468.3007
0
VERTEX
8
2
10
-2367.3064
20
1531.7979
0
VERTEX
8
2
10
-2300.9079
20
1595.2060
0
VERTEX
8
2
10
-2234.5820
20
1658.5423
0
SEQEND
0
TEXT
8
2
62
1
10
-4156.8240
20
-162.9591
40
12.0000
50
223.7399
1
1b\5
0
POLYLINE
8
2
62
1
66
1
6
CONTINUOUS
0
VERTEX
8
2
10
-2851.1286
20
890.7318
0
VERTEX
8
2
10
-2871.1170
20
891.4151
0
SEQEND
0
POLYLINE
8
2
62
1
66
1
6
CONTINUOUS
0
VERTEX
8
2
10
-2861.2936
20
886.0764
0
VERTEX
8
2
10
-2860.9520
20
896.0706
0
SEQEND
0
ENDBLK
5
15
100
AcDbBlockEnd
0
BLOCK
5
16
100
AcDbEntity
8
1
100
AcDbBlockBegin
10
0
20
0
30
0
2
Panel16
70
0
3
Panel16
0
POLYLINE
8
1
62
0
66
1
6
CONTINUOUS
0
VERTEX
8
1
10
-4135.7298
20
-238.0012
0
VERTEX
8
1
10
-4126.7283
20
-250.0000
0
SEQEND
0
POLYLINE
8
1
62
0
66
1
6
CONTINUOUS
0
VERTEX
8
1
10
-4126.7283
20
-250.0000
0
VERTEX
8
1
10
-4037.7416
20
-201.3746
0
VERTEX
8
1
10
-3948.7136
20
-152.7364
0
VERTEX
8
1
10
-3859.6441
20
-104.0685
0
VERTEX
8
1
10
-3770.5221
20
-55.3846
0
VERTEX
8
1
10
-3681.3746
20
-6.6820
0
VERTEX
8
1
10
-3592.1973
20
42.0289
0
VERTEX
8
1
10
-3502.9874
20
90.7492
0
VERTEX
8
1
10
-3413.7747
20
139.4688
0
VERTEX
8
1
10
-3324.5614
20
188.1745
0
VERTEX
8
1
10
-3235.3479
20
236.8923
0
VERTEX
8
1
10
-3146.1683
20
285.5760
0
VERTEX
8
1
10
-3057.0250
20
334.2498
0
VERTEX
8
1
10
-2967.9273
20
382.9068
0
VERTEX
8
1
10
-2878.8726
20
431.5354
0
VERTEX
8
1
10
-2789.8843
20
480.1297
0
VERTEX
8
1
10
-2700.9537
20
528.7061
0
VERTEX
8
1
10
-2612.0668
20
577.2705
0
VERTEX
8
1
10
-2523.2336
20
625.8144
0
VERTEX
8
1
10
-2434.4302
20
674.3500
0
VERTEX
8
1
10
-2345.6287
20
722.9065
0
SEQEND
0
POLYLINE
8
1
62
0
66
1
6
CONTINUOUS
0
VERTEX
8
1
10
-2345.6287
20
722.9065
0
VERTEX
8
1
10
-2338.1384
20
763.1813
0
VERTEX
8
1
10
-2320.0484
20
860.5076
0
VERTEX
8
1
10
-2301.9771
20
957.7643
0
VERTEX
8
1
10
-2283.9224
20
1054.9799
0
VERTEX
8
1
10
-2267.4910
20
1143.4606
0
VERTEX
8
1
10
-2263.4509
20
1165.2158
0
SEQEND
0
POLYLINE
8
1
62
0
66
1
6
CONTINUOUS
0
VERTEX
8
1
10
-2263.4509
20
1165.2158
0
VERTEX
8
1
10
-2350.6553
20
1099.9787
0
VERTEX
8
1
10
-2424.8113
20
1044.4999
0
VERTEX
8
1
10
-2498.9667
20
989.0232
0
VERTEX
8
1
10
-2573.1471
20
933.5101
0
VERTEX
8
1
10
-2647.3370
20
877.9772
0
VERTEX
8
1
10
-2721.5579
20
822.3987
0
VERTEX
8
1
10
-2795.8161
20
766.7864
0
VERTEX
8
1
10
-2870.1294
20
711.1158
0
VERTEX
8
1
10
-2944.4795
20
655.4049
0
VERTEX
8
1
10
-3018.8773
20
599.6430
0
VERTEX
8
1
10
-3093.3273
20
543.8432
0
VERTEX
8
1
10
-3167.8099
20
487.9991
0
VERTEX
8
1
10
-3242.3189
20
432.1257
0
VERTEX
8
1
10
-3316.8445
20
376.2419
0
VERTEX
8
1
10
-3391.3927
20
320.3331
0
VERTEX
8
1
10
-3465.9294
20
264.4318
0
VERTEX
8
1
10
-3540.4570
20
208.5348
0
VERTEX
8
1
10
-3614.9768
20
152.6447
0
VERTEX
8
1
10
-3689.4633
20
96.7760
0
VERTEX
8
1
10
-3763.9194
20
40.9352
0
VERTEX
8
1
10
-3838.3472
20
-14.8972
0
VERTEX
8
1
10
-3912.7497
20
-70.7105
0
VERTEX
8
1
10
-3987.1095
20
-126.4990
0
VERTEX
8
1
10
-4061.4354
20
-182.2651
0
VERTEX
8
1
10
-4135.7298
20
-238.0012
0
SEQEND
0
POLYLINE
8
2
62
1
66
1
6
CONTINUOUS
0
VERTEX
8
2
10
-4126.7283
20
-250.0000
0
VERTEX
8
2
10
-4052.4331
20
-194.2634
0
VERTEX
8
2
10
-3978.1075
20
-138.4976
0
VERTEX
8
2
10
-3903.7485
20
-82.7096
0
VERTEX
8
2
10
-3829.3460
20
-26.8963
0
VERTEX
8
2
10
-3754.9195
20
28.9351
0
VERTEX
8
2
10
-3680.4630
20
84.7763
0
VERTEX
8
2
10
-3605.9768
20
140.6448
0
VERTEX
8
2
10
-3531.4569
20
196.5349
0
VERTEX
8
2
10
-3456.9295
20
252.4317
0
VERTEX
8
2
10
-3382.3929
20
308.3329
0
VERTEX
8
2
10
-3307.8455
20
364.2411
0
VERTEX
8
2
10
-3233.3197
20
420.1250
0
VERTEX
8
2
10
-3158.8117
20
475.9977
0
VERTEX
8
2
10
-3084.3312
20
531.8403
0
VERTEX
8
2
10
-3009.8811
20
587.6402
0
VERTEX
8
2
10
-2935.4849
20
643.4009
0
VERTEX
8
2
10
-2861.1360
20
699.1108
0
VERTEX
8
2
10
-2786.8245
20
754.7801
0
VERTEX
8
2
10
-2712.5670
20
810.3920
0
VERTEX
8
2
10
-2638.3484
20
865.9687
0
VERTEX
8
2
10
-2564.1598
20
921.5006
0
VERTEX
8
2
10
-2489.9812
20
977.0124
0
VERTEX
8
2
10
-2415.8257
20
1032.4891
0
VERTEX
8
2
10
-2341.6699
20
1087.9678
0
VERTEX
8
2
10
-2267.4910
20
1143.4606
0
SEQEND
0
TEXT
8
2
62
1
10
-4102.5224
20
-215.6122
40
12.0000
50
216.8508
1
1b\6
0
ENDBLK
5
16
100
AcDbBlockEnd
0
BLOCK
5
17
100
AcDbEntity
8
1
100
AcDbBlockBegin
10
0
20
0
30
0
2
Panel17
70
0
3
Panel17
0
POLYLINE
8
1
62
0
66
1
6
CONTINUOUS
0
VERTEX
8
1
10
-4083.9052
20
-286.8284
0
VERTEX
8
1
10
-4076.7283
20
-300.0000
0
SEQEND
0
POLYLINE
8
1
62
0
66
1
6
CONTINUOUS
0
VERTEX
8
1
10
-4076.7283
20
-300.0000
0
VERTEX
8
1
10
-3986.2464
20
-266.3332
0
VERTEX
8
1
10
-3895.7150
20
-232.6557
0
VERTEX
8
1
10
-3805.1551
20
-198.9672
0
VERTEX
8
1
10
-3714.5550
20
-165.2626
0
VERTEX
8
1
10
-3623.9397
20
-131.5532
0
VERTEX
8
1
10
-3533.2957
20
-97.8418
0
VERTEX
8
1
10
-3442.6424
20
-64.1226
0
VERTEX
8
1
10
-3351.9997
20
-30.4150
0
VERTEX
8
1
10
-3261.3558
20
3.2894
0
VERTEX
8
1
10
-3170.7399
20
36.9929
0
VERTEX
8
1
10
-3080.1388
20
70.6735
0
VERTEX
8
1
10
-2989.5822
20
104.3461
0
VERTEX
8
1
10
-2899.0536
20
138.0038
0
VERTEX
8
1
10
-2808.5673
20
171.6506
0
VERTEX
8
1
10
-2718.1335
20
205.2853
0
VERTEX
8
1
10
-2627.7312
20
238.9012
0
VERTEX
8
1
10
-2537.3751
20
272.5174
0
VERTEX
8
1
10
-2447.0374
20
306.1312
0
VERTEX
8
1
10
-2356.7166
20
339.7446
0
SEQEND
0
POLYLINE
8
1
62
0
66
1
6
CONTINUOUS
0
VERTEX
8
1
10
-2356.7166
20
339.7446
0
VERTEX
8
1
10
-2341.8466
20
418.5830
0
VERTEX
8
1
10
-2323.4624
20
516.0941
0
VERTEX
8
1
10
-2305.0929
20
613.5238
0
VERTEX
8
1
10
-2294.3414
20
670.6065
0
VERTEX
8
1
10
-2290.7585
20
689.6291
0
SEQEND
0
POLYLINE
8
1
62
0
66
1
6
CONTINUOUS
0
VERTEX
8
1
10
-2290.7585
20
689.6291
0
VERTEX
8
1
10
-2378.8249
20
641.7404
0
VERTEX
8
1
10
-2456.1330
20
599.7122
0
VERTEX
8
1
10
-2533.4677
20
557.6471
0
VERTEX
8
1
10
-2610.8099
20
515.5810
0
VERTEX
8
1
10
-2688.1934
20
473.4734
0
VERTEX
8
1
10
-2765.6017
20
431.3409
0
VERTEX
8
1
10
-2843.0574
20
389.1692
0
VERTEX
8
1
10
-2920.5379
20
346.9850
0
VERTEX
8
1
10
-2998.0583
20
304.7646
0
VERTEX
8
1
10
-3075.6195
20
262.5178
0
VERTEX
8
1
10
-3153.1982
20
220.2632
0
VERTEX
8
1
10
-3230.8098
20
177.9821
0
VERTEX
8
1
10
-3308.4226
20
135.6959
0
VERTEX
8
1
10
-3386.0507
20
93.4081
0
VERTEX
8
1
10
-3463.6687
20
51.1181
0
VERTEX
8
1
10
-3541.2763
20
8.8316
0
VERTEX
8
1
10
-3618.8773
20
-33.4456
0
VERTEX
8
1
10
-3696.4502
20
-75.7133
0
VERTEX
8
1
10
-3774.0076
20
-117.9710
0
VERTEX
8
1
10
-3851.5269
20
-160.2106
0
VERTEX
8
1
10
-3929.0246
20
-202.4325
0
VERTEX
8
1
10
-4006.4819
20
-244.6417
0
VERTEX
8
1
10
-4083.9052
20
-286.8284
0
SEQEND
0
POLYLINE
8
2
62
1
66
1
6
CONTINUOUS
0
VERTEX
8
2
10
-4076.7283
20
-300.0000
0
VERTEX
8
2
10
-3999.3044
20
-257.8130
0
VERTEX
8
2
10
-3921.8484
20
-215.6044
0
VERTEX
8
2
10
-3844.3498
20
-173.3821
0
VERTEX
8
2
10
-3766.8309
20
-131.1428
0
VERTEX
8
2
10
-3689.2733
20
-88.8850
0
VERTEX
8
2
10
-3611.7012
20
-46.6177
0
VERTEX
8
2
10
-3534.0994
20
-4.3401
0
VERTEX
8
2
10
-3456.4921
20
37.9463
0
VERTEX
8
2
10
-3378.8751
20
80.2357
0
VERTEX
8
2
10
-3301.2461
20
122.5240
0
VERTEX
8
2
10
-3223.6339
20
164.8099
0
VERTEX
8
2
10
-3146.0235
20
207.0904
0
VERTEX
8
2
10
-3068.4445
20
249.3451
0
VERTEX
8
2
10
-2990.8839
20
291.5916
0
VERTEX
8
2
10
-2913.3653
20
333.8110
0
VERTEX
8
2
10
-2835.8847
20
375.9952
0
VERTEX
8
2
10
-2758.4308
20
418.1660
0
VERTEX
8
2
10
-2681.0239
20
460.2977
0
VERTEX
8
2
10
-2603.6429
20
502.4039
0
VERTEX
8
2
10
-2526.3004
20
544.4703
0
VERTEX
8
2
10
-2448.9686
20
586.5337
0
VERTEX
8
2
10
-2371.6592
20
628.5627
0
VERTEX
8
2
10
-2294.3414
20
670.6065
0
SEQEND
0
TEXT
8
2
62
1
10
-4047.8197
20
-269.4552
40
12.0000
50
208.5707
1
1b\7
0
ENDBLK
5
17
100
AcDbBlockEnd
0
BLOCK
5
18
100
AcDbEntity
8
1
100
AcDbBlockBegin
10
0
20
0
30
0
2
Panel18
70
0
3
Panel18
0
POLYLINE
8
1
62
0
66
1
6
CONTINUOUS
0
VERTEX
8
1
10
-4031.9514
20
-335.9388
0
VERTEX
8
1
10
-4026.7283
20
-350.0000
0
SEQEND
0
POLYLINE
8
1
62
0
66
1
6
CONTINUOUS
0
VERTEX
8
1
10
-4026.7283
20
-350.0000
0
VERTEX
8
1
10
-3939.0619
20
-331.5529
0
VERTEX
8
1
10
-3851.3625
20
-313.1032
0
VERTEX
8
1
10
-3763.6351
20
-294.6446
0
VERTEX
8
1
10
-3675.8853
20
-276.1878
0
VERTEX
8
1
10
-3588.1114
20
-257.7384
0
VERTEX
8
1
10
-3500.3411
20
-239.2913
0
VERTEX
8
1
10
-3412.5707
20
-220.8350
0
VERTEX
8
1
10
-3324.8088
20
-202.3915
0
VERTEX
8
1
10
-3237.0610
20
-183.9418
0
VERTEX
8
1
10
-3149.3234
20
-165.5055
0
VERTEX
8
1
10
-3061.6209
20
-147.0757
0
VERTEX
8
1
10
-2973.9472
20
-128.6519
0
VERTEX
8
1
10
-2886.3047
20
-110.2358
0
VERTEX
8
1
10
-2798.6952
20
-91.8297
0
VERTEX
8
1
10
-2711.1078
20
-73.4210
0
VERTEX
8
1
10
-2623.5615
20
-55.0219
0
VERTEX
8
1
10
-2536.0418
20
-36.6306
0
VERTEX
8
1
10
-2448.5444
20
-18.2370
0
VERTEX
8
1
10
-2361.0532
20
0.1529
0
SEQEND
0
POLYLINE
8
1
62
0
66
1
6
CONTINUOUS
0
VERTEX
8
1
10
-2361.0532
20
0.1529
0
VERTEX
8
1
10
-2346.9468
20
74.3349
0
VERTEX
8
1
10
-2328.3645
20
172.0789
0
VERTEX
8
1
10
-2309.7953
20
269.7424
0
VERTEX
8
1
10
-2306.2261
20
288.5107
0
VERTEX
8
1
10
-2302.9530
20
305.7216
0
SEQEND
0
POLYLINE
8
1
62
0
66
1
6
CONTINUOUS
0
VERTEX
8
1
10
-2302.9530
20
305.7216
0
VERTEX
8
1
10
-2386.0892
20
274.9018
0
VERTEX
8
1
10
-2460.7368
20
247.2279
0
VERTEX
8
1
10
-2535.4100
20
219.5420
0
VERTEX
8
1
10
-2610.0927
20
191.8381
0
VERTEX
8
1
10
-2684.8044
20
164.1330
0
VERTEX
8
1
10
-2759.5381
20
136.3997
0
VERTEX
8
1
10
-2834.3067
20
108.6583
0
VERTEX
8
1
10
-2909.0945
20
80.9077
0
VERTEX
8
1
10
-2983.9079
20
53.1342
0
VERTEX
8
1
10
-3058.7514
20
25.3647
0
VERTEX
8
1
10
-3133.6121
20
-2.4259
0
VERTEX
8
1
10
-3208.4984
20
-30.2262
0
VERTEX
8
1
10
-3283.3852
20
-58.0235
0
VERTEX
8
1
10
-3358.2917
20
-85.8258
0
VERTEX
8
1
10
-3433.1904
20
-113.6295
0
VERTEX
8
1
10
-3508.0865
20
-141.4318
0
VERTEX
8
1
10
-3582.9838
20
-169.2324
0
VERTEX
8
1
10
-3657.8614
20
-197.0296
0
VERTEX
8
1
10
-3732.7321
20
-224.8259
0
VERTEX
8
1
10
-3807.5722
20
-252.6031
0
VERTEX
8
1
10
-3882.4018
20
-280.3912
0
VERTEX
8
1
10
-3957.1908
20
-308.1684
0
VERTEX
8
1
10
-4031.9514
20
-335.9388
0
SEQEND
0
POLYLINE
8
2
62
1
66
1
6
CONTINUOUS
0
VERTEX
8
2
10
-4026.7283
20
-350.0000
0
VERTEX
8
2
10
-3951.9682
20
-322.2298
0
VERTEX
8
2
10
-3877.1799
20
-294.4529
0
VERTEX
8
2
10
-3802.3528
20
-266.6657
0
VERTEX
8
2
10
-3727.5114
20
-238.8881
0
VERTEX
8
2
10
-3652.6409
20
-211.0918
0
VERTEX
8
2
10
-3577.7641
20
-183.2949
0
VERTEX
8
2
10
-3502.8664
20
-155.4942
0
VERTEX
8
2
10
-3427.9702
20
-127.6918
0
VERTEX
8
2
10
-3353.0722
20
-99.8884
0
VERTEX
8
2
10
-3278.1653
20
-72.0859
0
VERTEX
8
2
10
-3203.2780
20
-44.2885
0
VERTEX
8
2
10
-3128.3917
20
-16.4882
0
VERTEX
8
2
10
-3053.5335
20
11.3015
0
VERTEX
8
2
10
-2978.6874
20
39.0719
0
VERTEX
8
2
10
-2903.8762
20
66.8446
0
VERTEX
8
2
10
-2829.0888
20
94.5951
0
VERTEX
8
2
10
-2754.3194
20
122.3368
0
VERTEX
8
2
10
-2679.5891
20
150.0688
0
VERTEX
8
2
10
-2604.8757
20
177.7745
0
VERTEX
8
2
10
-2530.1954
20
205.4775
0
VERTEX
8
2
10
-2455.5226
20
233.1633
0
VERTEX
8
2
10
-2380.8752
20
260.8372
0
VERTEX
8
2
10
-2306.2261
20
288.5107
0
SEQEND
0
TEXT
8
2
62
1
10
-3993.7547
20
-323.8965
40
12.0000
50
200.3608
1
1b\8
0
ENDBLK
5
18
100
AcDbBlockEnd
0
BLOCK
5
19
100
AcDbEntity
8
1
100
AcDbBlockBegin
10
0
20
0
30
0
2
Panel19
70
0
3
Panel19
0
POLYLINE
8
1
62
0
66
1
6
CONTINUOUS
0
VERTEX
8
1
10
-3979.8186
20
-385.3218
0
VERTEX
8
1
10
-3976.7283
20
-400.0000
0
SEQEND
0
POLYLINE
8
1
62
0
66
1
6
CONTINUOUS
0
VERTEX
8
1
10
-3976.7283
20
-400.0000
0
VERTEX
8
1
10
-3891.2315
20
-393.1056
0
VERTEX
8
1
10
-3805.6977
20
-386.2055
0
VERTEX
8
1
10
-3720.1523
20
-379.3286
0
VERTEX
8
1
10
-3634.5842
20
-372.4456
0
VERTEX
8
1
10
-3549.0109
20
-365.5661
0
VERTEX
8
1
10
-3463.4479
20
-358.6941
0
VERTEX
8
1
10
-3377.8821
20
-351.8301
0
VERTEX
8
1
10
-3292.3304
20
-344.9579
0
VERTEX
8
1
10
-3206.8070
20
-338.0977
0
VERTEX
8
1
10
-3121.2960
20
-331.2467
0
VERTEX
8
1
10
-3035.8199
20
-324.3831
0
VERTEX
8
1
10
-2950.3604
20
-317.5357
0
VERTEX
8
1
10
-2864.9301
20
-310.6849
0
VERTEX
8
1
10
-2779.5373
20
-303.8348
0
VERTEX
8
1
10
-2694.1618
20
-296.9838
0
VERTEX
8
1
10
-2608.8112
20
-290.1375
0
VERTEX
8
1
10
-2523.4936
20
-283.2944
0
VERTEX
8
1
10
-2438.1848
20
-276.4595
0
VERTEX
8
1
10
-2352.8907
20
-269.6157
0
SEQEND
0
POLYLINE
8
1
62
0
66
1
6
CONTINUOUS
0
VERTEX
8
1
10
-2352.8907
20
-269.6157
0
VERTEX
8
1
10
-2334.1627
20
-171.2176
0
VERTEX
8
1
10
-2315.5438
20
-73.3715
0
VERTEX
8
1
10
-2311.0465
20
-49.7597
0
VERTEX
8
1
10
-2308.0053
20
-33.7930
0
SEQEND
0
POLYLINE
8
1
62
0
66
1
6
CONTINUOUS
0
VERTEX
8
1
10
-2308.0053
20
-33.7930
0
VERTEX
8
1
10
-2389.6947
20
-50.9586
0
VERTEX
8
1
10
-2465.2582
20
-66.8326
0
VERTEX
8
1
10
-2540.8391
20
-82.7182
0
VERTEX
8
1
10
-2616.4374
20
-98.6019
0
VERTEX
8
1
10
-2692.0565
20
-114.4926
0
VERTEX
8
1
10
-2767.7040
20
-130.4028
0
VERTEX
8
1
10
-2843.3688
20
-146.3066
0
VERTEX
8
1
10
-2919.0679
20
-162.2166
0
VERTEX
8
1
10
-2994.7835
20
-178.1402
0
VERTEX
8
1
10
-3070.5171
20
-194.0564
0
VERTEX
8
1
10
-3146.2728
20
-209.9787
0
VERTEX
8
1
10
-3222.0471
20
-225.9112
0
VERTEX
8
1
10
-3297.8337
20
-241.8456
0
VERTEX
8
1
10
-3373.6292
20
-257.7821
0
VERTEX
8
1
10
-3449.4416
20
-273.7202
0
VERTEX
8
1
10
-3525.2452
20
-289.6588
0
VERTEX
8
1
10
-3601.0476
20
-305.6014
0
VERTEX
8
1
10
-3676.8394
20
-321.5467
0
VERTEX
8
1
10
-3752.6146
20
-337.4916
0
VERTEX
8
1
10
-3828.3706
20
-353.4243
0
VERTEX
8
1
10
-3904.1131
20
-369.3828
0
VERTEX
8
1
10
-3979.8186
20
-385.3218
0
SEQEND
0
POLYLINE
8
2
62
1
66
1
6
CONTINUOUS
0
VERTEX
8
2
10
-3976.7283
20
-400.0000
0
VERTEX
8
2
10
-3901.0205
20
-384.0605
0
VERTEX
8
2
10
-3825.2834
20
-368.1031
0
VERTEX
8
2
10
-3749.5259
20
-352.1702
0
VERTEX
8
2
10
-3673.7513
20
-336.2254
0
VERTEX
8
2
10
-3597.9604
20
-320.2802
0
VERTEX
8
2
10
-3522.1588
20
-304.3378
0
VERTEX
8
2
10
-3446.3556
20
-288.3994
0
VERTEX
8
2
10
-3370.5429
20
-272.4612
0
VERTEX
8
2
10
-3294.7474
20
-256.5246
0
VERTEX
8
2
10
-3218.9606
20
-240.5903
0
VERTEX
8
2
10
-3143.1875
20
-224.6579
0
VERTEX
8
2
10
-3067.4321
20
-208.7358
0
VERTEX
8
2
10
-2991.6964
20
-192.8191
0
VERTEX
8
2
10
-2915.9827
20
-176.8958
0
VERTEX
8
2
10
-2840.2834
20
-160.9858
0
VERTEX
8
2
10
-2764.6168
20
-145.0817
0
VERTEX
8
2
10
-2688.9717
20
-129.1720
0
VERTEX
8
2
10
-2613.3532
20
-113.2814
0
VERTEX
8
2
10
-2537.7538
20
-97.3975
0
VERTEX
8
2
10
-2462.1744
20
-81.5122
0
VERTEX
8
2
10
-2386.6101
20
-65.6380
0
VERTEX
8
2
10
-2311.0465
20
-49.7597
0
SEQEND
0
TEXT
8
2
62
1
10
-3940.2630
20
-379.0482
40
12.0000
50
191.8745
1
1b\9
0
ENDBLK
5
19
100
AcDbBlockEnd
0
BLOCK
5
20
100
AcDbEntity
8
1
100
AcDbBlockBegin
10
0
20
0
30
0
2
Panel20
70
0
3
Panel20
0
POLYLINE
8
1
62
0
66
1
6
CONTINUOUS
0
VERTEX
8
1
10
-3926.7283
20
-450.0000
0
VERTEX
8
1
10
-3811.2360
20
-455.5655
0
VERTEX
8
1
10
-3733.8961
20
-459.2925
0
VERTEX
8
1
10
-3667.7663
20
-462.3878
0
VERTEX
8
1
10
-3595.2489
20
-465.7050
0
VERTEX
8
1
10
-3522.5111
20
-468.9478
0
VERTEX
8
1
10
-3450.7969
20
-472.0662
0
VERTEX
8
1
10
-3378.5420
20
-475.1337
0
VERTEX
8
1
10
-3306.4338
20
-478.1194
0
VERTEX
8
1
10
-3234.3228
20
-481.0363
0
VERTEX
8
1
10
-3162.1884
20
-483.9043
0
VERTEX
8
1
10
-3090.0531
20
-486.7134
0
VERTEX
8
1
10
-3017.9154
20
-489.4629
0
VERTEX
8
1
10
-2945.7755
20
-492.1522
0
VERTEX
8
1
10
-2873.6341
20
-494.7983
0
VERTEX
8
1
10
-2801.5312
20
-497.4059
0
VERTEX
8
1
10
-2729.2866
20
-499.9671
0
VERTEX
8
1
10
-2657.1508
20
-502.4931
0
VERTEX
8
1
10
-2585.5335
20
-504.9661
0
VERTEX
8
1
10
-2512.4452
20
-507.4614
0
VERTEX
8
1
10
-2439.0566
20
-509.9254
0
VERTEX
8
1
10
-2373.4536
20
-512.1297
0
VERTEX
8
1
10
-2299.4639
20
-514.5719
0
VERTEX
8
1
10
-2224.3440
20
-516.9787
0
SEQEND
0
POLYLINE
8
1
62
0
66
1
6
CONTINUOUS
0
VERTEX
8
1
10
-2224.3440
20
-516.9787
0
VERTEX
8
1
10
-2205.9675
20
-419.0598
0
VERTEX
8
1
10
-2187.6848
20
-321.6617
0
VERTEX
8
1
10
-2184.8149
20
-306.3730
0
SEQEND
0
POLYLINE
8
1
62
0
66
1
6
CONTINUOUS
0
VERTEX
8
1
10
-2184.8149
20
-306.3730
0
VERTEX
8
1
10
-2274.1987
20
-313.7703
0
VERTEX
8
1
10
-2359.4883
20
-320.8186
0
VERTEX
8
1
10
-2444.7895
20
-327.8718
0
VERTEX
8
1
10
-2530.1231
20
-334.9284
0
VERTEX
8
1
10
-2615.4819
20
-341.9888
0
VERTEX
8
1
10
-2700.8571
20
-349.0469
0
VERTEX
8
1
10
-2786.2698
20
-356.1030
0
VERTEX
8
1
10
-2871.7113
20
-363.1526
0
VERTEX
8
1
10
-2957.1732
20
-370.2148
0
VERTEX
8
1
10
-3042.6650
20
-377.2604
0
VERTEX
8
1
10
-3128.1735
20
-384.3107
0
VERTEX
8
1
10
-3213.7108
20
-391.3663
0
VERTEX
8
1
10
-3299.2600
20
-398.4129
0
VERTEX
8
1
10
-3384.8085
20
-405.4557
0
VERTEX
8
1
10
-3470.3682
20
-412.4969
0
VERTEX
8
1
10
-3555.9234
20
-419.5373
0
VERTEX
8
1
10
-3641.4551
20
-426.5709
0
VERTEX
8
1
10
-3726.9775
20
-433.5965
0
VERTEX
8
1
10
-3769.7285
20
-437.1062
0
VERTEX
8
1
10
-3926.7283
20
-450.0000
0
SEQEND
0
POLYLINE
8
2
62
1
66
1
6
CONTINUOUS
0
VERTEX
8
2
10
-3811.2360
20
-455.5655
0
VERTEX
8
2
10
-3768.5012
20
-452.0559
0
VERTEX
8
2
10
-3725.7494
20
-448.5461
0
VERTEX
8
2
10
-3640.2258
20
-441.5204
0
VERTEX
8
2
10
-3554.6932
20
-434.4868
0
VERTEX
8
2
10
-3469.1379
20
-427.4463
0
VERTEX
8
2
10
-3383.5778
20
-420.4051
0
VERTEX
8
2
10
-3298.0287
20
-413.3623
0
VERTEX
8
2
10
-3212.4777
20
-406.3155
0
VERTEX
8
2
10
-3126.9409
20
-399.2600
0
VERTEX
8
2
10
-3041.4330
20
-392.2097
0
VERTEX
8
2
10
-2955.9379
20
-385.1638
0
VERTEX
8
2
10
-2870.4778
20
-378.1018
0
VERTEX
8
2
10
-2785.0348
20
-371.0521
0
VERTEX
8
2
10
-2699.6212
20
-363.9959
0
VERTEX
8
2
10
-2614.2454
20
-356.9378
0
VERTEX
8
2
10
-2528.8869
20
-349.8773
0
VERTEX
8
2
10
-2443.5535
20
-342.8208
0
VERTEX
8
2
10
-2358.2529
20
-335.7676
0
VERTEX
8
2
10
-2272.9615
20
-328.7192
0
VERTEX
8
2
10
-2187.6848
20
-321.6617
0
SEQEND
0
TEXT
8
2
62
1
10
-3776.8049
20
-454.8978
40
12.0000
50
357.7469
1
1b\10
0
ENDBLK
5
20
100
AcDbBlockEnd
0
BLOCK
5
21
100
AcDbEntity
8
1
100
AcDbBlockBegin
10
0
20
0
30
0
2
Panel21
70
0
3
Panel21
0
POLYLINE
8
1
62
0
66
1
6
CONTINUOUS
0
VERTEX
8
1
10
0.0000
20
2873.8164
0
VERTEX
8
1
10
15.0005
20
2873.6945
0
VERTEX
8
1
10
416.5785
20
2870.4318
0
SEQEND
0
POLYLINE
8
1
62
0
66
1
6
CONTINUOUS
0
VERTEX
8
1
10
416.5785
20
2870.4318
0
VERTEX
8
1
10
417.7587
20
2974.3168
0
VERTEX
8
1
10
418.8232
20
3070.6709
0
VERTEX
8
1
10
419.9362
20
3172.2848
0
VERTEX
8
1
10
421.0134
20
3272.7391
0
VERTEX
8
1
10
422.0621
20
3373.3136
0
VERTEX
8
1
10
423.1226
20
3473.8980
0
VERTEX
8
1
10
424.1160
20
3574.4731
0
VERTEX
8
1
10
425.0878
20
3675.0484
0
VERTEX
8
1
10
426.0331
20
3775.6340
0
VERTEX
8
1
10
426.9216
20
3876.2100
0
VERTEX
8
1
10
427.8021
20
3976.7962
0
VERTEX
8
1
10
428.6375
20
4077.3727
0
VERTEX
8
1
10
429.4266
20
4177.9596
0
VERTEX
8
1
10
430.1887
20
4278.5367
0
VERTEX
8
1
10
430.8947
20
4379.1242
0
VERTEX
8
1
10
431.5483
20
4479.7021
0
VERTEX
8
1
10
432.1923
20
4580.2901
0
VERTEX
8
1
10
432.7389
20
4680.8686
0
VERTEX
8
1
10
433.3045
20
4781.4570
0
VERTEX
8
1
10
433.7972
20
4882.0358
0
VERTEX
8
1
10
434.2326
20
4982.6148
0
VERTEX
8
1
10
434.6121
20
5083.2441
0
VERTEX
8
1
10
434.9526
20
5183.5635
0
VERTEX
8
1
10
435.2498
20
5285.0431
0
VERTEX
8
1
10
435.4885
20
5386.2328
0
VERTEX
8
1
10
435.6812
20
5485.5426
0
VERTEX
8
1
10
435.7297
20
5510.5579
0
SEQEND
0
POLYLINE
8
1
62
0
66
1
6
CONTINUOUS
0
VERTEX
8
1
10
435.7297
20
5510.5579
0
VERTEX
8
1
10
74.0669
20
5523.9374
0
VERTEX
8
1
10
59.0762
20
5524.4920
0
SEQEND
0
POLYLINE
8
1
62
0
66
1
6
CONTINUOUS
0
VERTEX
8
1
10
59.0762
20
5524.4920
0
VERTEX
8
1
10
58.4171
20
5499.3375
0
VERTEX
8
1
10
55.7714
20
5398.3808
0
VERTEX
8
1
10
53.1422
20
5297.4342
0
VERTEX
8
1
10
50.5432
20
5196.4779
0
VERTEX
8
1
10
47.9852
20
5095.5314
0
VERTEX
8
1
10
45.4467
20
4994.5793
0
VERTEX
8
1
10
42.9556
20
4893.6339
0
VERTEX
8
1
10
40.5108
20
4792.6790
0
VERTEX
8
1
10
38.1058
20
4691.7344
0
VERTEX
8
1
10
35.7497
20
4590.7768
0
VERTEX
8
1
10
33.4250
20
4489.8298
0
VERTEX
8
1
10
31.1449
20
4388.8678
0
VERTEX
8
1
10
28.9025
20
4287.9135
0
VERTEX
8
1
10
26.6937
20
4186.9559
0
VERTEX
8
1
10
24.5102
20
4085.9851
0
VERTEX
8
1
10
22.3574
20
3985.0192
0
VERTEX
8
1
10
20.2408
20
3884.0368
0
VERTEX
8
1
10
18.1365
20
3783.0630
0
VERTEX
8
1
10
16.0655
20
3682.0703
0
VERTEX
8
1
10
14.0067
20
3581.0853
0
VERTEX
8
1
10
11.9719
20
3480.0824
0
VERTEX
8
1
10
9.9662
20
3379.0824
0
VERTEX
8
1
10
7.9418
20
3278.0737
0
VERTEX
8
1
10
5.9540
20
3177.0602
0
VERTEX
8
1
10
3.9677
20
3076.0359
0
VERTEX
8
1
10
1.9807
20
2975.0156
0
VERTEX
8
1
10
0.0000
20
2873.8164
0
SEQEND
0
POLYLINE
8
2
62
1
66
1
6
CONTINUOUS
0
VERTEX
8
2
10
435.6812
20
5485.5426
0
VERTEX
8
2
10
73.4119
20
5498.9445
0
SEQEND
0
POLYLINE
8
2
62
1
66
1
6
CONTINUOUS
0
VERTEX
8
2
10
15.0005
20
2873.6945
0
VERTEX
8
2
10
16.9778
20
2974.7206
0
VERTEX
8
2
10
18.9648
20
3075.7411
0
VERTEX
8
2
10
20.9511
20
3176.7651
0
VERTEX
8
2
10
22.9388
20
3277.7732
0
VERTEX
8
2
10
24.9632
20
3378.7846
0
VERTEX
8
2
10
26.9689
20
3479.7802
0
VERTEX
8
2
10
29.0036
20
3580.7796
0
VERTEX
8
2
10
31.0623
20
3681.7628
0
VERTEX
8
2
10
33.1332
20
3782.7505
0
VERTEX
8
2
10
35.2375
20
3883.7225
0
VERTEX
8
2
10
37.3540
20
3984.6994
0
VERTEX
8
2
10
39.5067
20
4085.6608
0
VERTEX
8
2
10
41.6901
20
4186.6278
0
VERTEX
8
2
10
43.8988
20
4287.5804
0
VERTEX
8
2
10
46.1411
20
4388.5291
0
VERTEX
8
2
10
48.4210
20
4489.4844
0
VERTEX
8
2
10
50.7456
20
4590.4269
0
VERTEX
8
2
10
53.1015
20
4691.3771
0
VERTEX
8
2
10
55.5064
20
4792.3158
0
VERTEX
8
2
10
57.9510
20
4893.2639
0
VERTEX
8
2
10
60.4420
20
4994.2022
0
VERTEX
8
2
10
62.9804
20
5095.1514
0
VERTEX
8
2
10
65.5382
20
5196.0918
0
VERTEX
8
2
10
68.1372
20
5297.0437
0
VERTEX
8
2
10
70.7663
20
5397.9879
0
VERTEX
8
2
10
73.4119
20
5498.9445
0
VERTEX
8
2
10
74.0669
20
5523.9374
0
SEQEND
0
TEXT
8
2
62
1
10
40.0231
20
2876.4913
40
12.0000
50
-0.4655
1
2\1
0
POLYLINE
8
2
62
1
66
1
6
CONTINUOUS
0
VERTEX
8
2
10
304.2892
20
3369.6074
0
VERTEX
8
2
10
183.9920
20
3371.1403
0
SEQEND
0
POLYLINE
8
2
62
1
66
1
6
CONTINUOUS
0
VERTEX
8
2
10
422.0025
20
3367.5939
0
VERTEX
8
2
10
412.0030
20
3367.6982
0
SEQEND
0
POLYLINE
8
2
62
1
66
1
6
CONTINUOUS
0
VERTEX
8
2
10
329.6784
20
4980.4493
0
VERTEX
8
2
10
221.9116
20
4983.8621
0
SEQEND
0
POLYLINE
8
2
62
1
66
1
6
CONTINUOUS
0
VERTEX
8
2
10
434.2028
20
4975.7349
0
VERTEX
8
2
10
424.2029
20
4975.7782
0
SEQEND
0
POLYLINE
8
2
62
1
66
1
6
CONTINUOUS
0
VERTEX
8
2
10
398.3904
20
4176.8999
0
VERTEX
8
2
10
398.2768
20
4166.9005
0
SEQEND
0
POLYLINE
8
2
62
1
66
1
6
CONTINUOUS
0
VERTEX
8
2
10
403.3332
20
4171.8434
0
VERTEX
8
2
10
393.3339
20
4171.9570
0
SEQEND
0
ENDBLK
5
21
100
AcDbBlockEnd
0
BLOCK
5
22
100
AcDbEntity
8
1
100
AcDbBlockBegin
10
0
20
0
30
0
2
Panel22
70
0
3
Panel22
0
POLYLINE
8
1
62
0
66
1
6
CONTINUOUS
0
VERTEX
8
1
10
-882.7829
20
2880.8480
0
VERTEX
8
1
10
-867.7820
20
2880.6348
0
VERTEX
8
1
10
-466.3853
20
2874.9305
0
SEQEND
0
POLYLINE
8
1
62
0
66
1
6
CONTINUOUS
0
VERTEX
8
1
10
-466.3853
20
2874.9305
0
VERTEX
8
1
10
-463.7829
20
2975.9424
0
VERTEX
8
1
10
-461.1882
20
3076.9491
0
VERTEX
8
1
10
-458.6145
20
3177.9563
0
VERTEX
8
1
10
-456.0667
20
3278.9542
0
VERTEX
8
1
10
-453.5259
20
3379.9522
0
VERTEX
8
1
10
-451.0300
20
3480.9414
0
VERTEX
8
1
10
-448.5467
20
3581.9309
0
VERTEX
8
1
10
-446.0848
20
3682.9009
0
VERTEX
8
1
10
-443.6597
20
3783.8817
0
VERTEX
8
1
10
-441.2540
20
3884.8431
0
VERTEX
8
1
10
-438.8928
20
3985.8155
0
VERTEX
8
1
10
-436.5591
20
4086.7685
0
VERTEX
8
1
10
-434.2584
20
4187.7323
0
VERTEX
8
1
10
-432.0020
20
4288.6871
0
VERTEX
8
1
10
-429.7859
20
4389.6328
0
VERTEX
8
1
10
-427.6085
20
4490.5893
0
VERTEX
8
1
10
-425.4663
20
4591.5366
0
VERTEX
8
1
10
-423.3804
20
4692.4950
0
VERTEX
8
1
10
-421.3346
20
4793.4443
0
VERTEX
8
1
10
-419.3442
20
4894.4047
0
VERTEX
8
1
10
-417.4017
20
4995.3560
0
VERTEX
8
1
10
-415.4901
20
5096.3179
0
VERTEX
8
1
10
-413.6215
20
5197.2706
0
VERTEX
8
1
10
-411.7820
20
5298.2438
0
VERTEX
8
1
10
-409.9760
20
5399.2077
0
VERTEX
8
1
10
-408.2220
20
5500.1825
0
VERTEX
8
1
10
-407.7878
20
5525.1800
0
SEQEND
0
POLYLINE
8
1
62
0
66
1
6
CONTINUOUS
0
VERTEX
8
1
10
-407.7878
20
5525.1800
0
VERTEX
8
1
10
-771.1622
20
5535.2061
0
VERTEX
8
1
10
-786.1578
20
5535.6199
0
SEQEND
0
POLYLINE
8
1
62
0
66
1
6
CONTINUOUS
0
VERTEX
8
1
10
-786.1578
20
5535.6199
0
VERTEX
8
1
10
-791.3394
20
5409.6791
0
VERTEX
8
1
10
-795.4597
20
5308.5237
0
VERTEX
8
1
10
-799.5383
20
5207.3805
0
VERTEX
8
1
10
-803.5933
20
5106.2614
0
VERTEX
8
1
10
-807.6028
20
5005.1390
0
VERTEX
8
1
10
-811.5695
20
4904.0260
0
VERTEX
8
1
10
-815.4853
20
4802.9183
0
VERTEX
8
1
10
-819.3663
20
4701.8270
0
VERTEX
8
1
10
-823.2026
20
4600.7262
0
VERTEX
8
1
10
-826.9909
20
4499.6259
0
VERTEX
8
1
10
-830.7377
20
4398.5261
0
VERTEX
8
1
10
-834.4446
20
4297.4342
0
VERTEX
8
1
10
-838.1141
20
4196.3288
0
VERTEX
8
1
10
-841.7387
20
4095.2172
0
VERTEX
8
1
10
-845.3303
20
3994.1109
0
VERTEX
8
1
10
-848.8780
20
3892.9848
0
VERTEX
8
1
10
-852.3993
20
3791.8524
0
VERTEX
8
1
10
-855.8848
20
3690.7083
0
VERTEX
8
1
10
-859.3391
20
3589.5638
0
VERTEX
8
1
10
-862.7571
20
3488.3968
0
VERTEX
8
1
10
-866.1585
20
3387.2196
0
VERTEX
8
1
10
-869.5296
20
3286.0265
0
VERTEX
8
1
10
-872.8741
20
3184.8283
0
VERTEX
8
1
10
-876.1995
20
3083.6050
0
VERTEX
8
1
10
-879.4930
20
2982.3640
0
VERTEX
8
1
10
-882.7829
20
2880.8480
0
SEQEND
0
POLYLINE
8
2
62
1
66
1
6
CONTINUOUS
0
VERTEX
8
2
10
-408.2220
20
5500.1825
0
VERTEX
8
2
10
-772.1900
20
5510.2250
0
SEQEND
0
POLYLINE
8
2
62
1
66
1
6
CONTINUOUS
0
VERTEX
8
2
10
-867.7820
20
2880.6348
0
VERTEX
8
2
10
-864.5009
20
2981.8763
0
VERTEX
8
2
10
-861.2076
20
3083.1125
0
VERTEX
8
2
10
-857.8823
20
3184.3328
0
VERTEX
8
2
10
-854.5380
20
3285.5271
0
VERTEX
8
2
10
-851.1670
20
3386.7156
0
VERTEX
8
2
10
-847.7656
20
3487.8903
0
VERTEX
8
2
10
-844.3478
20
3589.0519
0
VERTEX
8
2
10
-840.8937
20
3690.1917
0
VERTEX
8
2
10
-837.4083
20
3791.3304
0
VERTEX
8
2
10
-833.8872
20
3892.4589
0
VERTEX
8
2
10
-830.3398
20
3993.5784
0
VERTEX
8
2
10
-826.7483
20
4094.6799
0
VERTEX
8
2
10
-823.1239
20
4195.7848
0
VERTEX
8
2
10
-819.4547
20
4296.8845
0
VERTEX
8
2
10
-815.7480
20
4397.9705
0
VERTEX
8
2
10
-812.0015
20
4499.0643
0
VERTEX
8
2
10
-808.2134
20
4600.1574
0
VERTEX
8
2
10
-804.3773
20
4701.2515
0
VERTEX
8
2
10
-800.4965
20
4802.3378
0
VERTEX
8
2
10
-796.5811
20
4903.4379
0
VERTEX
8
2
10
-792.6146
20
5004.5447
0
VERTEX
8
2
10
-788.6053
20
5105.6604
0
VERTEX
8
2
10
-784.5505
20
5206.7761
0
VERTEX
8
2
10
-780.4721
20
5307.9132
0
VERTEX
8
2
10
-776.3520
20
5409.0625
0
VERTEX
8
2
10
-772.1900
20
5510.2250
0
VERTEX
8
2
10
-771.1622
20
5535.2061
0
SEQEND
0
TEXT
8
2
62
1
10
-842.7444
20
2883.2793
40
12.0000
50
-0.8142
1
2\2
0
ENDBLK
5
22
100
AcDbBlockEnd
0
BLOCK
5
23
100
AcDbEntity
8
1
100
AcDbBlockBegin
10
0
20
0
30
0
2
Panel23
70
0
3
Panel23
0
POLYLINE
8
1
62
0
66
1
6
CONTINUOUS
0
VERTEX
8
1
10
-1369.9466
20
2890.9430
0
VERTEX
8
1
10
-1344.6117
20
2890.4517
0
VERTEX
8
1
10
-943.1494
20
2882.6667
0
SEQEND
0
POLYLINE
8
1
62
0
66
1
6
CONTINUOUS
0
VERTEX
8
1
10
-943.1494
20
2882.6667
0
VERTEX
8
1
10
-939.5023
20
2980.1458
0
VERTEX
8
1
10
-935.8704
20
3077.6082
0
VERTEX
8
1
10
-932.2534
20
3175.0611
0
VERTEX
8
1
10
-928.6585
20
3272.5148
0
VERTEX
8
1
10
-925.0907
20
3369.9395
0
VERTEX
8
1
10
-921.5398
20
3467.3548
0
VERTEX
8
1
10
-918.0087
20
3564.7708
0
VERTEX
8
1
10
-914.5037
20
3662.1678
0
VERTEX
8
1
10
-911.0139
20
3759.5552
0
VERTEX
8
1
10
-907.5387
20
3856.9333
0
VERTEX
8
1
10
-904.0921
20
3954.3123
0
VERTEX
8
1
10
-900.6569
20
4051.6817
0
VERTEX
8
1
10
-897.2367
20
4149.0416
0
VERTEX
8
1
10
-893.8462
20
4246.4126
0
VERTEX
8
1
10
-890.4562
20
4343.7636
0
VERTEX
8
1
10
-887.0883
20
4441.1154
0
VERTEX
8
1
10
-883.7213
20
4538.4772
0
VERTEX
8
1
10
-880.3705
20
4635.8295
0
VERTEX
8
1
10
-877.0327
20
4733.1923
0
VERTEX
8
1
10
-873.7042
20
4830.5555
0
VERTEX
8
1
10
-870.3874
20
4927.9390
0
VERTEX
8
1
10
-867.0877
20
5025.3131
0
VERTEX
8
1
10
-863.7758
20
5122.6968
0
VERTEX
8
1
10
-860.4646
20
5220.1005
0
VERTEX
8
1
10
-857.1677
20
5317.5148
0
VERTEX
8
1
10
-853.8784
20
5414.9392
0
VERTEX
8
1
10
-850.5675
20
5512.3830
0
VERTEX
8
1
10
-849.7184
20
5537.3706
0
SEQEND
0
POLYLINE
8
1
62
0
66
1
6
CONTINUOUS
0
VERTEX
8
1
10
-849.7184
20
5537.3706
0
VERTEX
8
1
10
-847.6844
20
5537.3272
0
VERTEX
8
1
10
-873.0263
20
5537.8681
0
SEQEND
0
POLYLINE
8
1
62
0
66
1
6
CONTINUOUS
0
VERTEX
8
1
10
-873.0263
20
5537.8681
0
VERTEX
8
1
10
-895.3606
20
5419.9284
0
VERTEX
8
1
10
-913.7397
20
5322.7995
0
VERTEX
8
1
10
-932.1161
20
5225.6875
0
VERTEX
8
1
10
-950.4927
20
5128.5891
0
VERTEX
8
1
10
-968.8564
20
5031.4963
0
VERTEX
8
1
10
-987.2011
20
4934.4010
0
VERTEX
8
1
10
-1005.5394
20
4837.3287
0
VERTEX
8
1
10
-1023.8567
20
4740.2606
0
VERTEX
8
1
10
-1042.1735
20
4643.2030
0
VERTEX
8
1
10
-1060.4725
20
4546.1447
0
VERTEX
8
1
10
-1078.7599
20
4449.0789
0
VERTEX
8
1
10
-1097.0283
20
4352.0215
0
VERTEX
8
1
10
-1115.2895
20
4254.9644
0
VERTEX
8
1
10
-1133.5265
20
4157.8988
0
VERTEX
8
1
10
-1151.7508
20
4060.8311
0
VERTEX
8
1
10
-1169.9636
20
3963.7564
0
VERTEX
8
1
10
-1188.1687
20
3866.6640
0
VERTEX
8
1
10
-1206.3444
20
3769.5663
0
VERTEX
8
1
10
-1224.5042
20
3672.4607
0
VERTEX
8
1
10
-1242.6490
20
3575.3423
0
VERTEX
8
1
10
-1260.7797
20
3478.2096
0
VERTEX
8
1
10
-1278.8998
20
3381.0526
0
VERTEX
8
1
10
-1296.9849
20
3283.8818
0
VERTEX
8
1
10
-1315.0648
20
3186.6988
0
VERTEX
8
1
10
-1333.1241
20
3089.4904
0
VERTEX
8
1
10
-1351.1634
20
2992.2601
0
VERTEX
8
1
10
-1369.9466
20
2890.9430
0
SEQEND
0
POLYLINE
8
2
62
1
66
1
6
CONTINUOUS
0
VERTEX
8
2
10
-850.5675
20
5512.3830
0
VERTEX
8
2
10
-852.4007
20
5512.4221
0
SEQEND
0
POLYLINE
8
2
62
1
66
1
6
CONTINUOUS
0
VERTEX
8
2
10
-1344.6117
20
2890.4517
0
VERTEX
8
2
10
-1326.5829
20
2987.6996
0
VERTEX
8
2
10
-1308.5446
20
3084.9240
0
VERTEX
8
2
10
-1290.4865
20
3182.1262
0
VERTEX
8
2
10
-1272.4069
20
3279.3074
0
VERTEX
8
2
10
-1254.3235
20
3376.4691
0
VERTEX
8
2
10
-1236.2041
20
3473.6224
0
VERTEX
8
2
10
-1218.0743
20
3570.7509
0
VERTEX
8
2
10
-1199.9303
20
3667.8651
0
VERTEX
8
2
10
-1181.7712
20
3764.9665
0
VERTEX
8
2
10
-1163.5969
20
3862.0567
0
VERTEX
8
2
10
-1145.3923
20
3959.1464
0
VERTEX
8
2
10
-1127.1801
20
4056.2180
0
VERTEX
8
2
10
-1108.9564
20
4153.2825
0
VERTEX
8
2
10
-1090.7206
20
4250.3418
0
VERTEX
8
2
10
-1072.4597
20
4347.3972
0
VERTEX
8
2
10
-1054.1922
20
4444.4503
0
VERTEX
8
2
10
-1035.9053
20
4541.5129
0
VERTEX
8
2
10
-1017.6071
20
4638.5668
0
VERTEX
8
2
10
-999.2903
20
4735.6247
0
VERTEX
8
2
10
-980.9739
20
4832.6879
0
VERTEX
8
2
10
-962.6357
20
4929.7598
0
VERTEX
8
2
10
-944.2919
20
5026.8503
0
VERTEX
8
2
10
-925.9288
20
5123.9402
0
VERTEX
8
2
10
-907.5520
20
5221.0393
0
VERTEX
8
2
10
-889.1756
20
5318.1514
0
VERTEX
8
2
10
-870.7971
20
5415.2768
0
VERTEX
8
2
10
-852.4007
20
5512.4221
0
VERTEX
8
2
10
-847.6844
20
5537.3272
0
SEQEND
0
TEXT
8
2
62
1
10
-1329.8960
20
2893.1669
40
12.0000
50
-1.1109
1
2\3
0
ENDBLK
5
23
100
AcDbBlockEnd
0
BLOCK
5
24
100
AcDbEntity
8
1
100
AcDbBlockBegin
10
0
20
0
30
0
2
Panel24
70
0
3
Panel24
0
POLYLINE
8
1
62
0
66
1
6
CONTINUOUS
0
VERTEX
8
1
10
-2411.0062
20
2873.8164
0
VERTEX
8
1
10
-2395.2984
20
2873.4321
0
VERTEX
8
1
10
-1993.8929
20
2863.6113
0
SEQEND
0
POLYLINE
8
1
62
0
66
1
6
CONTINUOUS
0
VERTEX
8
1
10
-1993.8929
20
2863.6113
0
VERTEX
8
1
10
-1976.0406
20
2957.2944
0
VERTEX
8
1
10
-1958.2246
20
3050.9753
0
VERTEX
8
1
10
-1940.4214
20
3144.6282
0
VERTEX
8
1
10
-1922.6503
20
3238.2769
0
VERTEX
8
1
10
-1904.9003
20
3331.9195
0
VERTEX
8
1
10
-1887.1715
20
3425.5458
0
VERTEX
8
1
10
-1869.4614
20
3519.1755
0
VERTEX
8
1
10
-1851.7863
20
3612.7814
0
VERTEX
8
1
10
-1834.1151
20
3706.3982
0
VERTEX
8
1
10
-1816.4677
20
3800.0093
0
VERTEX
8
1
10
-1798.8394
20
3893.6036
0
VERTEX
8
1
10
-1781.2303
20
3987.2118
0
VERTEX
8
1
10
-1763.6474
20
4080.8045
0
VERTEX
8
1
10
-1746.0675
20
4174.4079
0
VERTEX
8
1
10
-1728.5101
20
4268.0156
0
VERTEX
8
1
10
-1710.9715
20
4361.6166
0
VERTEX
8
1
10
-1693.4514
20
4455.2312
0
VERTEX
8
1
10
-1675.9438
20
4548.8381
0
VERTEX
8
1
10
-1658.4432
20
4642.4564
0
VERTEX
8
1
10
-1640.9482
20
4736.0859
0
VERTEX
8
1
10
-1623.4698
20
4829.7185
0
VERTEX
8
1
10
-1606.0058
20
4923.3742
0
VERTEX
8
1
10
-1588.5398
20
5017.0294
0
VERTEX
8
1
10
-1571.0933
20
5110.7087
0
VERTEX
8
1
10
-1553.6299
20
5204.3950
0
VERTEX
8
1
10
-1536.1786
20
5298.0835
0
VERTEX
8
1
10
-1518.7351
20
5391.8040
0
VERTEX
8
1
10
-1501.3136
20
5485.5388
0
VERTEX
8
1
10
-1496.6822
20
5510.4572
0
SEQEND
0
POLYLINE
8
1
62
0
66
1
6
CONTINUOUS
0
VERTEX
8
1
10
-1496.6822
20
5510.4572
0
VERTEX
8
1
10
-1494.1347
20
5510.4099
0
VERTEX
8
1
10
-1509.8929
20
5510.7023
0
SEQEND
0
POLYLINE
8
1
62
0
66
1
6
CONTINUOUS
0
VERTEX
8
1
10
-1509.8929
20
5510.7023
0
VERTEX
8
1
10
-1548.8988
20
5397.0283
0
VERTEX
8
1
10
-1580.9589
20
5303.6652
0
VERTEX
8
1
10
-1613.0312
20
5210.3269
0
VERTEX
8
1
10
-1645.0859
20
5117.0007
0
VERTEX
8
1
10
-1677.1155
20
5023.6890
0
VERTEX
8
1
10
-1709.1476
20
4930.3976
0
VERTEX
8
1
10
-1741.1620
20
4837.1191
0
VERTEX
8
1
10
-1773.1527
20
4743.8549
0
VERTEX
8
1
10
-1805.1339
20
4650.6042
0
VERTEX
8
1
10
-1837.0977
20
4557.3606
0
VERTEX
8
1
10
-1869.0373
20
4464.1212
0
VERTEX
8
1
10
-1900.9698
20
4370.8882
0
VERTEX
8
1
10
-1932.8733
20
4277.6540
0
VERTEX
8
1
10
-1964.7611
20
4184.4217
0
VERTEX
8
1
10
-1996.6387
20
4091.1773
0
VERTEX
8
1
10
-2028.4997
20
3997.9388
0
VERTEX
8
1
10
-2060.3378
20
3904.6928
0
VERTEX
8
1
10
-2092.1677
20
3811.4421
0
VERTEX
8
1
10
-2123.9717
20
3718.1801
0
VERTEX
8
1
10
-2155.7717
20
3624.9121
0
VERTEX
8
1
10
-2187.5429
20
3531.6304
0
VERTEX
8
1
10
-2219.3031
20
3438.3408
0
VERTEX
8
1
10
-2251.0571
20
3345.0409
0
VERTEX
8
1
10
-2282.7856
20
3251.7224
0
VERTEX
8
1
10
-2314.4977
20
3158.3861
0
VERTEX
8
1
10
-2346.1856
20
3065.0279
0
VERTEX
8
1
10
-2377.8501
20
2971.6481
0
VERTEX
8
1
10
-2411.0062
20
2873.8164
0
SEQEND
0
POLYLINE
8
2
62
1
66
1
6
CONTINUOUS
0
VERTEX
8
2
10
-1501.3136
20
5485.5388
0
VERTEX
8
2
10
-1502.6603
20
5485.5638
0
SEQEND
0
POLYLINE
8
2
62
1
66
1
6
CONTINUOUS
0
VERTEX
8
2
10
-2395.2984
20
2873.4321
0
VERTEX
8
2
10
-2363.6446
20
2966.8311
0
VERTEX
8
2
10
-2331.9815
20
3060.2067
0
VERTEX
8
2
10
-2300.2951
20
3153.5606
0
VERTEX
8
2
10
-2268.5840
20
3246.8938
0
VERTEX
8
2
10
-2236.8570
20
3340.2080
0
VERTEX
8
2
10
-2205.1034
20
3433.5065
0
VERTEX
8
2
10
-2173.3439
20
3526.7943
0
VERTEX
8
2
10
-2141.5743
20
3620.0714
0
VERTEX
8
2
10
-2109.7745
20
3713.3386
0
VERTEX
8
2
10
-2077.9719
20
3806.5966
0
VERTEX
8
2
10
-2046.1425
20
3899.8459
0
VERTEX
8
2
10
-2014.3055
20
3993.0884
0
VERTEX
8
2
10
-1982.4452
20
4086.3250
0
VERTEX
8
2
10
-1950.5683
20
4179.5674
0
VERTEX
8
2
10
-1918.6812
20
4272.7976
0
VERTEX
8
2
10
-1886.7790
20
4366.0279
0
VERTEX
8
2
10
-1854.8468
20
4459.2602
0
VERTEX
8
2
10
-1822.9083
20
4552.4965
0
VERTEX
8
2
10
-1790.9452
20
4645.7380
0
VERTEX
8
2
10
-1758.9641
20
4738.9880
0
VERTEX
8
2
10
-1726.9744
20
4832.2497
0
VERTEX
8
2
10
-1694.9606
20
4925.5264
0
VERTEX
8
2
10
-1662.9280
20
5018.8192
0
VERTEX
8
2
10
-1630.8994
20
5112.1281
0
VERTEX
8
2
10
-1598.8453
20
5205.4524
0
VERTEX
8
2
10
-1566.7721
20
5298.7936
0
VERTEX
8
2
10
-1534.7109
20
5392.1599
0
VERTEX
8
2
10
-1502.6603
20
5485.5638
0
VERTEX
8
2
10
-1494.1347
20
5510.4099
0
SEQEND
0
TEXT
8
2
62
1
10
-2370.9448
20
2875.8372
40
12.0000
50
-1.4015
1
2b\1
0
ENDBLK
5
24
100
AcDbBlockEnd
0
BLOCK
5
25
100
AcDbEntity
8
1
100
AcDbBlockBegin
10
0
20
0
30
0
2
Panel25
70
0
3
Panel25
0
POLYLINE
8
1
62
0
66
1
6
CONTINUOUS
0
VERTEX
8
1
10
-2875.3684
20
2902.6535
0
VERTEX
8
1
10
-2859.6259
20
2902.1754
0
VERTEX
8
1
10
-2458.2875
20
2889.9851
0
SEQEND
0
POLYLINE
8
1
62
0
66
1
6
CONTINUOUS
0
VERTEX
8
1
10
-2458.2875
20
2889.9851
0
VERTEX
8
1
10
-2426.1060
20
2983.2035
0
VERTEX
8
1
10
-2393.9599
20
3076.4161
0
VERTEX
8
1
10
-2361.8365
20
3169.6154
0
VERTEX
8
1
10
-2329.7365
20
3262.8121
0
VERTEX
8
1
10
-2297.6698
20
3356.0098
0
VERTEX
8
1
10
-2265.6223
20
3449.2035
0
VERTEX
8
1
10
-2233.6030
20
3542.4068
0
VERTEX
8
1
10
-2201.6078
20
3635.6079
0
VERTEX
8
1
10
-2169.6171
20
3728.8105
0
VERTEX
8
1
10
-2137.6597
20
3822.0140
0
VERTEX
8
1
10
-2105.7143
20
3915.2216
0
VERTEX
8
1
10
-2073.8008
20
4008.4401
0
VERTEX
8
1
10
-2041.9064
20
4101.6651
0
VERTEX
8
1
10
-2010.0391
20
4194.9100
0
VERTEX
8
1
10
-1978.2058
20
4288.1559
0
VERTEX
8
1
10
-1946.4036
20
4381.4230
0
VERTEX
8
1
10
-1914.6188
20
4474.7066
0
VERTEX
8
1
10
-1882.8759
20
4568.0044
0
VERTEX
8
1
10
-1851.1633
20
4661.3337
0
VERTEX
8
1
10
-1819.4859
20
4754.6855
0
VERTEX
8
1
10
-1787.8504
20
4848.0726
0
VERTEX
8
1
10
-1756.2425
20
4941.4902
0
VERTEX
8
1
10
-1724.6688
20
5034.9405
0
VERTEX
8
1
10
-1693.1312
20
5128.4135
0
VERTEX
8
1
10
-1661.6026
20
5221.9212
0
VERTEX
8
1
10
-1630.0871
20
5315.4544
0
VERTEX
8
1
10
-1598.5979
20
5409.0176
0
VERTEX
8
1
10
-1567.1297
20
5502.6195
0
VERTEX
8
1
10
-1558.7540
20
5527.5330
0
SEQEND
0
POLYLINE
8
1
62
0
66
1
6
CONTINUOUS
0
VERTEX
8
1
10
-1558.7540
20
5527.5330
0
VERTEX
8
1
10
-1919.2799
20
5531.3173
0
VERTEX
8
1
10
-1935.1728
20
5531.4841
0
SEQEND
0
POLYLINE
8
1
62
0
66
1
6
CONTINUOUS
0
VERTEX
8
1
10
-1935.1728
20
5531.4841
0
VERTEX
8
1
10
-1976.1414
20
5418.3593
0
VERTEX
8
1
10
-2009.8415
20
5325.2145
0
VERTEX
8
1
10
-2043.5166
20
5232.0893
0
VERTEX
8
1
10
-2077.1491
20
5138.9761
0
VERTEX
8
1
10
-2110.7699
20
5045.8807
0
VERTEX
8
1
10
-2144.3545
20
4952.7979
0
VERTEX
8
1
10
-2177.8774
20
4859.7490
0
VERTEX
8
1
10
-2211.3574
20
4766.7126
0
VERTEX
8
1
10
-2244.7716
20
4673.6917
0
VERTEX
8
1
10
-2278.1482
20
4580.6887
0
VERTEX
8
1
10
-2311.4751
20
4487.6962
0
VERTEX
8
1
10
-2344.7611
20
4394.7138
0
VERTEX
8
1
10
-2378.0086
20
4301.7386
0
VERTEX
8
1
10
-2411.2100
20
4208.7780
0
VERTEX
8
1
10
-2444.3944
20
4115.8140
0
VERTEX
8
1
10
-2477.5439
20
4022.8498
0
VERTEX
8
1
10
-2510.6660
20
3929.8876
0
VERTEX
8
1
10
-2543.7713
20
3836.9271
0
VERTEX
8
1
10
-2576.8484
20
3743.9641
0
VERTEX
8
1
10
-2609.9137
20
3651.0019
0
VERTEX
8
1
10
-2642.9485
20
3558.0461
0
VERTEX
8
1
10
-2675.9886
20
3465.0829
0
VERTEX
8
1
10
-2709.0071
20
3372.1153
0
VERTEX
8
1
10
-2742.0054
20
3279.1429
0
VERTEX
8
1
10
-2774.9764
20
3186.1626
0
VERTEX
8
1
10
-2807.9189
20
3093.1735
0
VERTEX
8
1
10
-2840.8531
20
3000.1774
0
VERTEX
8
1
10
-2875.3684
20
2902.6535
0
SEQEND
0
POLYLINE
8
2
62
1
66
1
6
CONTINUOUS
0
VERTEX
8
2
10
-1567.1297
20
5502.6195
0
VERTEX
8
2
10
-1928.2999
20
5506.4106
0
SEQEND
0
POLYLINE
8
2
62
1
66
1
6
CONTINUOUS
0
VERTEX
8
2
10
-2859.6259
20
2902.1754
0
VERTEX
8
2
10
-2826.7136
20
2995.1700
0
VERTEX
8
2
10
-2793.7800
20
3088.1646
0
VERTEX
8
2
10
-2760.8389
20
3181.1495
0
VERTEX
8
2
10
-2727.8694
20
3274.1257
0
VERTEX
8
2
10
-2694.8721
20
3367.0951
0
VERTEX
8
2
10
-2661.8548
20
3460.0596
0
VERTEX
8
2
10
-2628.8145
20
3553.0231
0
VERTEX
8
2
10
-2595.7811
20
3645.9752
0
VERTEX
8
2
10
-2562.7163
20
3738.9358
0
VERTEX
8
2
10
-2529.6406
20
3831.8948
0
VERTEX
8
2
10
-2496.5360
20
3924.8532
0
VERTEX
8
2
10
-2463.4153
20
4017.8118
0
VERTEX
8
2
10
-2430.2674
20
4110.7712
0
VERTEX
8
2
10
-2397.0839
20
4203.7328
0
VERTEX
8
2
10
-2363.8845
20
4296.6879
0
VERTEX
8
2
10
-2330.6387
20
4389.6583
0
VERTEX
8
2
10
-2297.3545
20
4482.6356
0
VERTEX
8
2
10
-2264.0298
20
4575.6219
0
VERTEX
8
2
10
-2230.6547
20
4668.6207
0
VERTEX
8
2
10
-2197.2435
20
4761.6335
0
VERTEX
8
2
10
-2163.7653
20
4854.6648
0
VERTEX
8
2
10
-2130.2449
20
4947.7071
0
VERTEX
8
2
10
-2096.6617
20
5040.7857
0
VERTEX
8
2
10
-2063.0412
20
5133.8804
0
VERTEX
8
2
10
-2029.4105
20
5226.9884
0
VERTEX
8
2
10
-1995.7364
20
5320.1112
0
VERTEX
8
2
10
-1962.0378
20
5413.2517
0
VERTEX
8
2
10
-1928.2999
20
5506.4106
0
VERTEX
8
2
10
-1919.2799
20
5531.3173
0
SEQEND
0
TEXT
8
2
62
1
10
-2835.2958
20
2904.4377
40
12.0000
50
-1.7398
1
2b\2
0
ENDBLK
5
25
100
AcDbBlockEnd
0
BLOCK
5
26
100
AcDbEntity
8
1
100
AcDbBlockBegin
10
0
20
0
30
0
2
Panel26
70
0
3
Panel26
0
POLYLINE
8
1
62
0
66
1
6
CONTINUOUS
0
VERTEX
8
1
10
-3308.0547
20
2932.6132
0
VERTEX
8
1
10
-2906.7109
20
2919.4914
0
SEQEND
0
POLYLINE
8
1
62
0
66
1
6
CONTINUOUS
0
VERTEX
8
1
10
-2906.7109
20
2919.4914
0
VERTEX
8
1
10
-2884.0909
20
2982.9485
0
VERTEX
8
1
10
-2861.4771
20
3046.4097
0
VERTEX
8
1
10
-2838.8511
20
3109.8773
0
VERTEX
8
1
10
-2816.2450
20
3173.3307
0
VERTEX
8
1
10
-2793.6183
20
3236.7980
0
VERTEX
8
1
10
-2771.0045
20
3300.2592
0
VERTEX
8
1
10
-2748.3930
20
3363.7107
0
VERTEX
8
1
10
-2725.7860
20
3427.1744
0
VERTEX
8
1
10
-2703.1754
20
3490.6474
0
VERTEX
8
1
10
-2680.5544
20
3554.1167
0
VERTEX
8
1
10
-2657.9453
20
3617.5797
0
VERTEX
8
1
10
-2635.3303
20
3681.0512
0
VERTEX
8
1
10
-2612.7072
20
3744.5197
0
VERTEX
8
1
10
-2590.0919
20
3807.9804
0
VERTEX
8
1
10
-2567.4636
20
3871.4578
0
VERTEX
8
1
10
-2544.8453
20
3934.9387
0
VERTEX
8
1
10
-2522.2175
20
3998.4268
0
VERTEX
8
1
10
-2499.6015
20
4061.9085
0
VERTEX
8
1
10
-2476.9792
20
4125.3986
0
VERTEX
8
1
10
-2454.3510
20
4188.8972
0
VERTEX
8
1
10
-2431.7403
20
4252.3915
0
VERTEX
8
1
10
-2409.1159
20
4315.9020
0
VERTEX
8
1
10
-2386.4891
20
4379.4224
0
VERTEX
8
1
10
-2363.8723
20
4442.9462
0
VERTEX
8
1
10
-2341.2566
20
4506.4918
0
VERTEX
8
1
10
-2318.6420
20
4570.0483
0
VERTEX
8
1
10
-2296.0296
20
4633.6162
0
VERTEX
8
1
10
-2273.4192
20
4697.1848
0
VERTEX
8
1
10
-2250.8113
20
4760.7862
0
VERTEX
8
1
10
-2228.2052
20
4824.3988
0
VERTEX
8
1
10
-2205.6016
20
4888.0229
0
VERTEX
8
1
10
-2182.9993
20
4951.6793
0
VERTEX
8
1
10
-2160.4006
20
5015.3582
0
VERTEX
8
1
10
-2137.8130
20
5079.0623
0
VERTEX
8
1
10
-2115.2137
20
5142.7622
0
VERTEX
8
1
10
-2092.6118
20
5206.4824
0
VERTEX
8
1
10
-2070.0079
20
5270.2126
0
VERTEX
8
1
10
-2047.4032
20
5333.9424
0
VERTEX
8
1
10
-2024.7964
20
5397.6927
0
VERTEX
8
1
10
-2002.1792
20
5461.4606
0
VERTEX
8
1
10
-1979.5605
20
5525.2385
0
VERTEX
8
1
10
-1970.7066
20
5550.2038
0
SEQEND
0
POLYLINE
8
1
62
0
66
1
6
CONTINUOUS
0
VERTEX
8
1
10
-1970.7066
20
5550.2038
0
VERTEX
8
1
10
-2330.7326
20
5551.6229
0
SEQEND
0
POLYLINE
8
1
62
0
66
1
6
CONTINUOUS
0
VERTEX
8
1
10
-2330.7326
20
5551.6229
0
VERTEX
8
1
10
-2341.1914
20
5526.6639
0
VERTEX
8
1
10
-2362.4257
20
5475.9900
0
VERTEX
8
1
10
-2394.9308
20
5398.5721
0
VERTEX
8
1
10
-2419.6525
20
5339.9068
0
VERTEX
8
1
10
-2446.1437
20
5277.1900
0
VERTEX
8
1
10
-2472.6764
20
5214.5605
0
VERTEX
8
1
10
-2498.9711
20
5152.4092
0
VERTEX
8
1
10
-2525.6854
20
5090.1196
0
VERTEX
8
1
10
-2552.1301
20
5027.8091
0
VERTEX
8
1
10
-2572.9869
20
4969.0194
0
VERTEX
8
1
10
-2598.6594
20
4896.8954
0
VERTEX
8
1
10
-2620.1524
20
4836.7316
0
VERTEX
8
1
10
-2643.4993
20
4771.5809
0
VERTEX
8
1
10
-2666.4197
20
4707.8585
0
VERTEX
8
1
10
-2689.4796
20
4643.9628
0
VERTEX
8
1
10
-2712.6304
20
4580.0337
0
VERTEX
8
1
10
-2735.8182
20
4516.1895
0
VERTEX
8
1
10
-2759.0774
20
4452.3314
0
VERTEX
8
1
10
-2782.4148
20
4388.5178
0
VERTEX
8
1
10
-2805.8123
20
4324.7195
0
VERTEX
8
1
10
-2829.2681
20
4260.9452
0
VERTEX
8
1
10
-2852.8023
20
4197.2046
0
VERTEX
8
1
10
-2876.3935
20
4133.4774
0
VERTEX
8
1
10
-2900.0523
20
4069.7733
0
VERTEX
8
1
10
-2923.7683
20
4006.1020
0
VERTEX
8
1
10
-2947.5512
20
3942.4433
0
VERTEX
8
1
10
-2971.4009
20
3878.8171
0
VERTEX
8
1
10
-2995.3074
20
3815.2034
0
VERTEX
8
1
10
-3019.2803
20
3751.6210
0
VERTEX
8
1
10
-3043.2963
20
3688.0602
0
VERTEX
8
1
10
-3067.4555
20
3624.5391
0
VERTEX
8
1
10
-3091.3887
20
3560.9515
0
VERTEX
8
1
10
-3116.0743
20
3497.6188
0
VERTEX
8
1
10
-3140.0384
20
3434.0515
0
VERTEX
8
1
10
-3156.5172
20
3384.2778
0
VERTEX
8
1
10
-3182.6834
20
3305.4580
0
VERTEX
8
1
10
-3202.4481
20
3246.2092
0
VERTEX
8
1
10
-3223.4078
20
3183.5617
0
VERTEX
8
1
10
-3244.9567
20
3119.3544
0
VERTEX
8
1
10
-3264.6229
20
3060.9434
0
VERTEX
8
1
10
-3288.7727
20
2989.5072
0
VERTEX
8
1
10
-3308.0547
20
2932.6132
0
SEQEND
0
POLYLINE
8
2
62
1
66
1
6
CONTINUOUS
0
VERTEX
8
2
10
-1979.5605
20
5525.2385
0
VERTEX
8
2
10
-2341.1914
20
5526.6639
0
SEQEND
0
TEXT
8
2
62
1
10
-3267.9780
20
2934.3045
40
12.0000
50
-1.8726
1
2b\3
0
POLYLINE
8
2
62
1
66
1
6
CONTINUOUS
0
VERTEX
8
2
10
-2941.2215
20
3427.7373
0
VERTEX
8
2
10
-3040.6301
20
3430.8810
0
SEQEND
0
POLYLINE
8
2
62
1
66
1
6
CONTINUOUS
0
VERTEX
8
2
10
-3140.0384
20
3434.0515
0
VERTEX
8
2
10
-3130.5451
20
3430.9085
0
SEQEND
0
POLYLINE
8
2
62
1
66
1
6
CONTINUOUS
0
VERTEX
8
2
10
-2385.3183
20
5025.8350
0
VERTEX
8
2
10
-2468.7193
20
5026.8321
0
SEQEND
0
POLYLINE
8
2
62
1
66
1
6
CONTINUOUS
0
VERTEX
8
2
10
-2552.1301
20
5027.8091
0
VERTEX
8
2
10
-2542.7057
20
5024.4656
0
SEQEND
0
TEXT
8
2
62
1
10
-3116.4897
20
3425.6573
40
12.0000
50
69.9751
1
3
0
TEXT
8
2
62
1
10
-2528.5815
20
5019.4150
40
12.0000
50
69.9751
1
2
0
ENDBLK
5
26
100
AcDbBlockEnd
0
BLOCK
5
27
100
AcDbEntity
8
1
100
AcDbBlockBegin
10
0
20
0
30
0
2
Panel27
70
0
3
Panel27
0
POLYLINE
8
1
62
0
66
1
6
CONTINUOUS
0
VERTEX
8
1
10
0.0000
20
5660.7023
0
VERTEX
8
1
10
15.0463
20
5660.6531
0
VERTEX
8
1
10
378.2275
20
5659.4676
0
SEQEND
0
POLYLINE
8
1
62
0
66
1
6
CONTINUOUS
0
VERTEX
8
1
10
378.2275
20
5659.4676
0
VERTEX
8
1
10
374.8561
20
5763.1842
0
VERTEX
8
1
10
371.6834
20
5859.3819
0
VERTEX
8
1
10
368.2768
20
5960.8247
0
VERTEX
8
1
10
364.8568
20
6061.1064
0
VERTEX
8
1
10
361.3619
20
6161.5156
0
VERTEX
8
1
10
357.8073
20
6261.9227
0
VERTEX
8
1
10
354.1867
20
6362.3174
0
VERTEX
8
1
10
350.4867
20
6462.7193
0
VERTEX
8
1
10
346.6976
20
6563.1178
0
VERTEX
8
1
10
342.9830
20
6663.5091
0
VERTEX
8
1
10
339.0646
20
6763.9026
0
VERTEX
8
1
10
334.8979
20
6864.2862
0
VERTEX
8
1
10
331.0562
20
6964.6827
0
VERTEX
8
1
10
326.9422
20
7065.0685
0
VERTEX
8
1
10
322.8728
20
7165.4560
0
VERTEX
8
1
10
318.7368
20
7265.8408
0
VERTEX
8
1
10
314.5771
20
7366.2247
0
VERTEX
8
1
10
310.4008
20
7466.5979
0
VERTEX
8
1
10
306.2160
20
7566.9807
0
VERTEX
8
1
10
302.0239
20
7667.3532
0
VERTEX
8
1
10
297.8127
20
7767.7349
0
VERTEX
8
1
10
293.6035
20
7868.1167
0
VERTEX
8
1
10
289.3980
20
7968.4886
0
VERTEX
8
1
10
285.2143
20
8068.7313
0
VERTEX
8
1
10
281.0195
20
8170.1646
0
VERTEX
8
1
10
277.0398
20
8266.3423
0
VERTEX
8
1
10
272.8138
20
8370.0162
0
SEQEND
0
POLYLINE
8
1
62
0
66
1
6
CONTINUOUS
0
VERTEX
8
1
10
272.8138
20
8370.0162
0
VERTEX
8
1
10
244.0758
20
8368.8822
0
VERTEX
8
1
10
228.9705
20
8368.2861
0
SEQEND
0
POLYLINE
8
1
62
0
66
1
6
CONTINUOUS
0
VERTEX
8
1
10
228.9705
20
8368.2861
0
VERTEX
8
1
10
212.0034
20
8169.5324
0
VERTEX
8
1
10
203.4376
20
8069.2295
0
VERTEX
8
1
10
194.8715
20
7968.9166
0
VERTEX
8
1
10
186.3146
20
7868.6024
0
VERTEX
8
1
10
177.7514
20
7768.3004
0
VERTEX
8
1
10
169.1885
20
7667.9871
0
VERTEX
8
1
10
160.6314
20
7567.6734
0
VERTEX
8
1
10
152.0735
20
7467.3709
0
VERTEX
8
1
10
143.5335
20
7367.0537
0
VERTEX
8
1
10
134.9865
20
7266.7403
0
VERTEX
8
1
10
126.4589
20
7166.4337
0
VERTEX
8
1
10
117.9131
20
7066.1217
0
VERTEX
8
1
10
109.3851
20
6965.8052
0
VERTEX
8
1
10
100.8463
20
6865.5033
0
VERTEX
8
1
10
92.3151
20
6765.1892
0
VERTEX
8
1
10
83.7795
20
6664.8780
0
VERTEX
8
1
10
75.2734
20
6564.5750
0
VERTEX
8
1
10
66.7949
20
6464.2644
0
VERTEX
8
1
10
58.3415
20
6363.9566
0
VERTEX
8
1
10
49.9292
20
6263.6588
0
VERTEX
8
1
10
41.5422
20
6163.3553
0
VERTEX
8
1
10
33.1935
20
6063.0520
0
VERTEX
8
1
10
24.8717
20
5962.7621
0
VERTEX
8
1
10
16.5794
20
5862.4632
0
VERTEX
8
1
10
8.3194
20
5762.1657
0
VERTEX
8
1
10
0.0000
20
5660.7023
0
SEQEND
0
POLYLINE
8
2
62
1
66
1
6
CONTINUOUS
0
VERTEX
8
2
10
15.0463
20
5660.6531
0
VERTEX
8
2
10
23.2688
20
5760.9346
0
VERTEX
8
2
10
31.5284
20
5861.2273
0
VERTEX
8
2
10
39.8204
20
5961.5217
0
VERTEX
8
2
10
48.1418
20
6061.8078
0
VERTEX
8
2
10
56.4900
20
6162.1055
0
VERTEX
8
2
10
64.8767
20
6262.4051
0
VERTEX
8
2
10
73.2886
20
6362.6970
0
VERTEX
8
2
10
81.7416
20
6463.0011
0
VERTEX
8
2
10
90.2197
20
6563.3075
0
VERTEX
8
2
10
98.7255
20
6663.6062
0
VERTEX
8
2
10
107.2611
20
6763.9181
0
VERTEX
8
2
10
115.7922
20
6864.2309
0
VERTEX
8
2
10
124.3312
20
6964.5346
0
VERTEX
8
2
10
132.8590
20
7064.8484
0
VERTEX
8
2
10
141.4050
20
7165.1631
0
VERTEX
8
2
10
149.9323
20
7265.4669
0
VERTEX
8
2
10
158.4795
20
7365.7814
0
VERTEX
8
2
10
167.0192
20
7466.0957
0
VERTEX
8
2
10
175.5771
20
7566.3985
0
VERTEX
8
2
10
184.1341
20
7666.7113
0
VERTEX
8
2
10
192.6970
20
7767.0244
0
VERTEX
8
2
10
201.2604
20
7867.3275
0
VERTEX
8
2
10
209.8171
20
7967.6404
0
VERTEX
8
2
10
218.3832
20
8067.9532
0
VERTEX
8
2
10
226.9490
20
8168.2561
0
VERTEX
8
2
10
235.5153
20
8268.5689
0
VERTEX
8
2
10
244.0758
20
8368.8822
0
SEQEND
0
TEXT
8
2
62
1
10
40.0096
20
5663.5717
40
12.0000
50
-0.1870
1
3\1
0
POLYLINE
8
2
62
1
66
1
6
CONTINUOUS
0
VERTEX
8
2
10
279.9718
20
6759.1315
0
VERTEX
8
2
10
220.7407
20
6760.1891
0
SEQEND
0
POLYLINE
8
2
62
1
66
1
6
CONTINUOUS
0
VERTEX
8
2
10
339.3153
20
6757.4775
0
VERTEX
8
2
10
329.3229
20
6757.0875
0
SEQEND
0
POLYLINE
8
2
62
1
66
1
6
CONTINUOUS
0
VERTEX
8
2
10
336.8677
20
5958.0384
0
VERTEX
8
2
10
337.1926
20
5948.0437
0
SEQEND
0
POLYLINE
8
2
62
1
66
1
6
CONTINUOUS
0
VERTEX
8
2
10
342.0275
20
5953.2035
0
VERTEX
8
2
10
332.0328
20
5952.8786
0
SEQEND
0
POLYLINE
8
2
62
1
66
1
6
CONTINUOUS
0
VERTEX
8
2
10
274.9282
20
7568.0706
0
VERTEX
8
2
10
275.2531
20
7558.0759
0
SEQEND
0
POLYLINE
8
2
62
1
66
1
6
CONTINUOUS
0
VERTEX
8
2
10
280.0880
20
7563.2357
0
VERTEX
8
2
10
270.0933
20
7562.9108
0
SEQEND
0
ENDBLK
5
27
100
AcDbBlockEnd
0
BLOCK
5
28
100
AcDbEntity
8
1
100
AcDbBlockBegin
10
0
20
0
30
0
2
Panel28
70
0
3
Panel28
0
POLYLINE
8
1
62
0
66
1
6
CONTINUOUS
0
VERTEX
8
1
10
-806.4427
20
5666.3631
0
VERTEX
8
1
10
-791.1527
20
5666.3046
0
VERTEX
8
1
10
-428.1324
20
5664.9155
0
SEQEND
0
POLYLINE
8
1
62
0
66
1
6
CONTINUOUS
0
VERTEX
8
1
10
-428.1324
20
5664.9155
0
VERTEX
8
1
10
-420.1442
20
5761.6124
0
VERTEX
8
1
10
-412.1797
20
5858.3150
0
VERTEX
8
1
10
-404.2406
20
5955.0297
0
VERTEX
8
1
10
-396.3367
20
6051.7473
0
VERTEX
8
1
10
-388.4487
20
6148.4762
0
VERTEX
8
1
10
-380.5971
20
6245.2081
0
VERTEX
8
1
10
-372.7532
20
6341.9506
0
VERTEX
8
1
10
-364.9372
20
6438.6954
0
VERTEX
8
1
10
-357.1402
20
6535.4417
0
VERTEX
8
1
10
-349.3726
20
6632.2004
0
VERTEX
8
1
10
-341.6084
20
6728.9594
0
VERTEX
8
1
10
-333.8591
20
6825.7296
0
VERTEX
8
1
10
-326.1145
20
6922.4902
0
VERTEX
8
1
10
-318.3695
20
7019.2607
0
VERTEX
8
1
10
-310.6364
20
7116.0222
0
VERTEX
8
1
10
-302.8918
20
7212.7828
0
VERTEX
8
1
10
-295.1677
20
7309.5550
0
VERTEX
8
1
10
-287.4309
20
7406.3162
0
VERTEX
8
1
10
-279.6936
20
7503.0874
0
VERTEX
8
1
10
-271.9639
20
7599.8491
0
VERTEX
8
1
10
-264.2274
20
7696.6304
0
VERTEX
8
1
10
-256.4962
20
7793.3920
0
VERTEX
8
1
10
-248.7615
20
7890.1534
0
VERTEX
8
1
10
-241.0215
20
7986.9243
0
VERTEX
8
1
10
-233.2796
20
8083.6851
0
VERTEX
8
1
10
-225.5262
20
8180.4550
0
VERTEX
8
1
10
-217.7751
20
8277.2251
0
VERTEX
8
1
10
-210.0325
20
8374.0059
0
SEQEND
0
POLYLINE
8
1
62
0
66
1
6
CONTINUOUS
0
VERTEX
8
1
10
-210.0325
20
8374.0059
0
VERTEX
8
1
10
-238.7787
20
8372.8610
0
VERTEX
8
1
10
-254.2161
20
8372.2462
0
SEQEND
0
POLYLINE
8
1
62
0
66
1
6
CONTINUOUS
0
VERTEX
8
1
10
-254.2161
20
8372.2462
0
VERTEX
8
1
10
-293.1025
20
8182.4674
0
VERTEX
8
1
10
-312.9457
20
8085.7589
0
VERTEX
8
1
10
-332.7890
20
7989.0534
0
VERTEX
8
1
10
-352.6276
20
7892.3341
0
VERTEX
8
1
10
-372.4542
20
7795.6227
0
VERTEX
8
1
10
-392.2863
20
7698.9128
0
VERTEX
8
1
10
-412.1160
20
7602.1926
0
VERTEX
8
1
10
-431.9394
20
7505.4846
0
VERTEX
8
1
10
-451.7602
20
7408.7704
0
VERTEX
8
1
10
-471.5668
20
7312.0683
0
VERTEX
8
1
10
-491.3628
20
7215.3606
0
VERTEX
8
1
10
-511.1551
20
7118.6706
0
VERTEX
8
1
10
-530.9293
20
7021.9839
0
VERTEX
8
1
10
-550.6883
20
6925.2953
0
VERTEX
8
1
10
-570.4419
20
6828.6264
0
VERTEX
8
1
10
-590.1852
20
6731.9546
0
VERTEX
8
1
10
-609.9038
20
6635.3006
0
VERTEX
8
1
10
-629.6037
20
6538.6464
0
VERTEX
8
1
10
-649.2897
20
6442.0133
0
VERTEX
8
1
10
-668.9482
20
6345.3883
0
VERTEX
8
1
10
-688.5899
20
6248.7649
0
VERTEX
8
1
10
-708.2092
20
6152.1615
0
VERTEX
8
1
10
-727.7938
20
6055.5566
0
VERTEX
8
1
10
-747.3602
20
5958.9743
0
VERTEX
8
1
10
-766.8959
20
5862.3900
0
VERTEX
8
1
10
-786.3894
20
5765.8240
0
VERTEX
8
1
10
-806.4427
20
5666.3631
0
SEQEND
0
POLYLINE
8
2
62
1
66
1
6
CONTINUOUS
0
VERTEX
8
2
10
-791.1527
20
5666.3046
0
VERTEX
8
2
10
-771.6860
20
5762.8558
0
VERTEX
8
2
10
-752.1937
20
5859.4162
0
VERTEX
8
2
10
-732.6589
20
5955.9960
0
VERTEX
8
2
10
-713.0928
20
6052.5763
0
VERTEX
8
2
10
-693.5093
20
6149.1761
0
VERTEX
8
2
10
-673.8905
20
6245.7768
0
VERTEX
8
2
10
-654.2493
20
6342.3978
0
VERTEX
8
2
10
-634.5916
20
6439.0190
0
VERTEX
8
2
10
-614.9059
20
6535.6507
0
VERTEX
8
2
10
-595.2065
20
6632.3022
0
VERTEX
8
2
10
-575.4886
20
6728.9531
0
VERTEX
8
2
10
-555.7456
20
6825.6233
0
VERTEX
8
2
10
-535.9920
20
6922.2920
0
VERTEX
8
2
10
-516.2335
20
7018.9783
0
VERTEX
8
2
10
-496.4598
20
7115.6624
0
VERTEX
8
2
10
-476.6675
20
7212.3525
0
VERTEX
8
2
10
-456.8718
20
7309.0585
0
VERTEX
8
2
10
-437.0656
20
7405.7589
0
VERTEX
8
2
10
-417.2450
20
7502.4725
0
VERTEX
8
2
10
-397.4216
20
7599.1799
0
VERTEX
8
2
10
-377.5921
20
7695.8995
0
VERTEX
8
2
10
-357.7598
20
7792.6102
0
VERTEX
8
2
10
-337.9336
20
7889.3201
0
VERTEX
8
2
10
-318.0951
20
7986.0383
0
VERTEX
8
2
10
-298.2518
20
8082.7440
0
VERTEX
8
2
10
-278.4080
20
8179.4555
0
VERTEX
8
2
10
-258.5878
20
8276.1546
0
VERTEX
8
2
10
-238.7787
20
8372.8610
0
SEQEND
0
TEXT
8
2
62
1
10
-766.4315
20
5669.2100
40
12.0000
50
-0.2192
1
3\2
0
ENDBLK
5
28
100
AcDbBlockEnd
0
BLOCK
5
29
100
AcDbEntity
8
1
100
AcDbBlockBegin
10
0
20
0
30
0
2
Panel29
70
0
3
Panel29
0
POLYLINE
8
1
62
0
66
1
6
CONTINUOUS
0
VERTEX
8
1
10
-1234.9099
20
5680.0449
0
VERTEX
8
1
10
-1219.1845
20
5679.8920
0
VERTEX
8
1
10
-856.0163
20
5676.3612
0
SEQEND
0
POLYLINE
8
1
62
0
66
1
6
CONTINUOUS
0
VERTEX
8
1
10
-856.0163
20
5676.3612
0
VERTEX
8
1
10
-836.0019
20
5772.8004
0
VERTEX
8
1
10
-816.0203
20
5869.2626
0
VERTEX
8
1
10
-796.0523
20
5965.7582
0
VERTEX
8
1
10
-776.1043
20
6062.2580
0
VERTEX
8
1
10
-756.1871
20
6158.7846
0
VERTEX
8
1
10
-736.2792
20
6255.3233
0
VERTEX
8
1
10
-716.3951
20
6351.8975
0
VERTEX
8
1
10
-696.5349
20
6448.4767
0
VERTEX
8
1
10
-676.6878
20
6545.0789
0
VERTEX
8
1
10
-656.8662
20
6641.7068
0
VERTEX
8
1
10
-637.0615
20
6738.3382
0
VERTEX
8
1
10
-617.2686
20
6835.0026
0
VERTEX
8
1
10
-597.4962
20
6931.6713
0
VERTEX
8
1
10
-577.7431
20
7028.3540
0
VERTEX
8
1
10
-558.0025
20
7125.0496
0
VERTEX
8
1
10
-538.2647
20
7221.7456
0
VERTEX
8
1
10
-518.5409
20
7318.4650
0
VERTEX
8
1
10
-498.8268
20
7415.1864
0
VERTEX
8
1
10
-479.1117
20
7511.9177
0
VERTEX
8
1
10
-459.4069
20
7608.6511
0
VERTEX
8
1
10
-439.6976
20
7705.3939
0
VERTEX
8
1
10
-419.9907
20
7802.1269
0
VERTEX
8
1
10
-400.2925
20
7898.8617
0
VERTEX
8
1
10
-380.5838
20
7995.6045
0
VERTEX
8
1
10
-360.8685
20
8092.3359
0
VERTEX
8
1
10
-341.1549
20
8189.0777
0
VERTEX
8
1
10
-321.4431
20
8285.7995
0
VERTEX
8
1
10
-301.6926
20
8382.5134
0
SEQEND
0
POLYLINE
8
1
62
0
66
1
6
CONTINUOUS
0
VERTEX
8
1
10
-301.6926
20
8382.5134
0
VERTEX
8
1
10
-330.4448
20
8381.4792
0
VERTEX
8
1
10
-346.4295
20
8380.9043
0
SEQEND
0
POLYLINE
8
1
62
0
66
1
6
CONTINUOUS
0
VERTEX
8
1
10
-346.4295
20
8380.9043
0
VERTEX
8
1
10
-408.4598
20
8192.9106
0
VERTEX
8
1
10
-440.3786
20
8096.2714
0
VERTEX
8
1
10
-472.3232
20
7999.6274
0
VERTEX
8
1
10
-504.2702
20
7902.9652
0
VERTEX
8
1
10
-536.2209
20
7806.3114
0
VERTEX
8
1
10
-568.1683
20
7709.6580
0
VERTEX
8
1
10
-600.1065
20
7613.0076
0
VERTEX
8
1
10
-632.0425
20
7516.3549
0
VERTEX
8
1
10
-663.9637
20
7419.7213
0
VERTEX
8
1
10
-695.8711
20
7323.1011
0
VERTEX
8
1
10
-727.7652
20
7226.4973
0
VERTEX
8
1
10
-759.6400
20
7129.9012
0
VERTEX
8
1
10
-791.4790
20
7033.3336
0
VERTEX
8
1
10
-823.2937
20
6936.7925
0
VERTEX
8
1
10
-855.0780
20
6840.2748
0
VERTEX
8
1
10
-886.8417
20
6743.7765
0
VERTEX
8
1
10
-918.5591
20
6647.3228
0
VERTEX
8
1
10
-950.2248
20
6550.9043
0
VERTEX
8
1
10
-981.8619
20
6454.5245
0
VERTEX
8
1
10
-1013.4556
20
6358.1661
0
VERTEX
8
1
10
-1044.9981
20
6261.8501
0
VERTEX
8
1
10
-1076.5052
20
6165.5672
0
VERTEX
8
1
10
-1107.9778
20
6069.3134
0
VERTEX
8
1
10
-1139.4012
20
5973.0736
0
VERTEX
8
1
10
-1170.7887
20
5876.8721
0
VERTEX
8
1
10
-1202.1366
20
5780.6930
0
VERTEX
8
1
10
-1234.9099
20
5680.0449
0
SEQEND
0
POLYLINE
8
2
62
1
66
1
6
CONTINUOUS
0
VERTEX
8
2
10
-1219.1845
20
5679.8920
0
VERTEX
8
2
10
-1187.8750
20
5776.0447
0
VERTEX
8
2
10
-1156.5285
20
5872.2194
0
VERTEX
8
2
10
-1125.1421
20
5968.4178
0
VERTEX
8
2
10
-1093.7206
20
6064.6516
0
VERTEX
8
2
10
-1062.2491
20
6160.9021
0
VERTEX
8
2
10
-1030.7430
20
6257.1817
0
VERTEX
8
2
10
-999.2022
20
6353.4927
0
VERTEX
8
2
10
-967.6100
20
6449.8463
0
VERTEX
8
2
10
-935.9737
20
6546.2239
0
VERTEX
8
2
10
-904.3098
20
6642.6371
0
VERTEX
8
2
10
-872.5937
20
6739.0866
0
VERTEX
8
2
10
-840.8307
20
6835.5830
0
VERTEX
8
2
10
-809.0474
20
6932.0977
0
VERTEX
8
2
10
-777.2333
20
7028.6367
0
VERTEX
8
2
10
-745.3955
20
7125.2007
0
VERTEX
8
2
10
-713.5214
20
7221.7946
0
VERTEX
8
2
10
-681.6276
20
7318.3974
0
VERTEX
8
2
10
-649.7207
20
7415.0164
0
VERTEX
8
2
10
-617.7999
20
7511.6488
0
VERTEX
8
2
10
-585.8640
20
7608.3011
0
VERTEX
8
2
10
-553.9261
20
7704.9504
0
VERTEX
8
2
10
-521.9788
20
7801.6035
0
VERTEX
8
2
10
-490.0279
20
7898.2581
0
VERTEX
8
2
10
-458.0810
20
7994.9198
0
VERTEX
8
2
10
-426.1354
20
8091.5671
0
VERTEX
8
2
10
-394.2156
20
8188.2093
0
VERTEX
8
2
10
-362.3213
20
8284.8444
0
VERTEX
8
2
10
-330.4448
20
8381.4792
0
SEQEND
0
TEXT
8
2
62
1
10
-1194.8827
20
5682.6559
40
12.0000
50
-0.5570
1
3\3
0
ENDBLK
5
29
100
AcDbBlockEnd
0
BLOCK
5
30
100
AcDbEntity
8
1
100
AcDbBlockBegin
10
0
20
0
30
0
2
Panel30
70
0
3
Panel30
0
POLYLINE
8
1
62
0
66
1
6
CONTINUOUS
0
VERTEX
8
1
10
-1629.8965
20
5701.2625
0
VERTEX
8
1
10
-1266.7044
20
5695.6693
0
SEQEND
0
POLYLINE
8
1
62
0
66
1
6
CONTINUOUS
0
VERTEX
8
1
10
-1266.7044
20
5695.6693
0
VERTEX
8
1
10
-1244.9759
20
5761.2100
0
VERTEX
8
1
10
-1223.2499
20
5826.7741
0
VERTEX
8
1
10
-1201.5164
20
5892.3567
0
VERTEX
8
1
10
-1179.7957
20
5957.9647
0
VERTEX
8
1
10
-1158.0871
20
6023.5766
0
VERTEX
8
1
10
-1136.3800
20
6089.2207
0
VERTEX
8
1
10
-1114.6741
20
6154.8862
0
VERTEX
8
1
10
-1092.9787
20
6220.5762
0
VERTEX
8
1
10
-1071.2918
20
6286.2691
0
VERTEX
8
1
10
-1049.6028
20
6352.0034
0
VERTEX
8
1
10
-1027.9220
20
6417.7614
0
VERTEX
8
1
10
-1006.2482
20
6483.5428
0
VERTEX
8
1
10
-984.5898
20
6549.3398
0
VERTEX
8
1
10
-962.9256
20
6615.1665
0
VERTEX
8
1
10
-941.2738
20
6681.0184
0
VERTEX
8
1
10
-919.6230
20
6746.9021
0
VERTEX
8
1
10
-897.9854
20
6812.8006
0
VERTEX
8
1
10
-876.3490
20
6878.7312
0
VERTEX
8
1
10
-854.7228
20
6944.6756
0
VERTEX
8
1
10
-833.0955
20
7010.6407
0
VERTEX
8
1
10
-811.4765
20
7076.6086
0
VERTEX
8
1
10
-789.8453
20
7142.6040
0
VERTEX
8
1
10
-768.2219
20
7208.6125
0
VERTEX
8
1
10
-746.6062
20
7274.6340
0
VERTEX
8
1
10
-724.9878
20
7340.6547
0
VERTEX
8
1
10
-703.3767
20
7406.6987
0
VERTEX
8
1
10
-681.7525
20
7472.7491
0
VERTEX
8
1
10
-660.1370
20
7538.8127
0
VERTEX
8
1
10
-638.5194
20
7604.8652
0
VERTEX
8
1
10
-616.9109
20
7670.9417
0
VERTEX
8
1
10
-595.2897
20
7737.0140
0
VERTEX
8
1
10
-573.6763
20
7803.0889
0
VERTEX
8
1
10
-552.0598
20
7869.1523
0
VERTEX
8
1
10
-530.4343
20
7935.2338
0
VERTEX
8
1
10
-508.8174
20
8001.3075
0
VERTEX
8
1
10
-487.1895
20
8067.3776
0
VERTEX
8
1
10
-465.5682
20
8133.4289
0
VERTEX
8
1
10
-443.9242
20
8199.4832
0
VERTEX
8
1
10
-422.2751
20
8265.5254
0
VERTEX
8
1
10
-400.6179
20
8331.5649
0
VERTEX
8
1
10
-378.9356
20
8397.5751
0
SEQEND
0
POLYLINE
8
1
62
0
66
1
6
CONTINUOUS
0
VERTEX
8
1
10
-378.9356
20
8397.5751
0
VERTEX
8
1
10
-407.6798
20
8396.5556
0
SEQEND
0
POLYLINE
8
1
62
0
66
1
6
CONTINUOUS
0
VERTEX
8
1
10
-407.6798
20
8396.5556
0
VERTEX
8
1
10
-434.9902
20
8337.5851
0
VERTEX
8
1
10
-468.7328
20
8264.9721
0
VERTEX
8
1
10
-496.8776
20
8204.5895
0
VERTEX
8
1
10
-527.4268
20
8139.1359
0
VERTEX
8
1
10
-557.3902
20
8075.1033
0
VERTEX
8
1
10
-587.4662
20
8010.9198
0
VERTEX
8
1
10
-617.6347
20
7946.6783
0
VERTEX
8
1
10
-647.8130
20
7882.5331
0
VERTEX
8
1
10
-678.0454
20
7818.3771
0
VERTEX
8
1
10
-708.3350
20
7754.2412
0
VERTEX
8
1
10
-738.6623
20
7690.1395
0
VERTEX
8
1
10
-769.0360
20
7626.0517
0
VERTEX
8
1
10
-799.4598
20
7561.9948
0
VERTEX
8
1
10
-829.9290
20
7497.9493
0
VERTEX
8
1
10
-860.4570
20
7433.9380
0
VERTEX
8
1
10
-891.0207
20
7369.9445
0
VERTEX
8
1
10
-921.6516
20
7305.9805
0
VERTEX
8
1
10
-952.3293
20
7242.0392
0
VERTEX
8
1
10
-983.0541
20
7178.1202
0
VERTEX
8
1
10
-1013.8469
20
7114.2394
0
VERTEX
8
1
10
-1044.6998
20
7050.3769
0
VERTEX
8
1
10
-1075.5925
20
6986.5449
0
VERTEX
8
1
10
-1106.5789
20
6922.7476
0
VERTEX
8
1
10
-1137.5483
20
6858.9491
0
VERTEX
8
1
10
-1168.6867
20
6795.2339
0
VERTEX
8
1
10
-1197.7013
20
6724.7082
0
VERTEX
8
1
10
-1225.3834
20
6657.6983
0
VERTEX
8
1
10
-1253.4792
20
6589.8768
0
VERTEX
8
1
10
-1282.1997
20
6520.7588
0
VERTEX
8
1
10
-1310.6461
20
6452.5340
0
VERTEX
8
1
10
-1339.3189
20
6383.9844
0
VERTEX
8
1
10
-1368.0107
20
6315.5923
0
VERTEX
8
1
10
-1396.8001
20
6247.1937
0
VERTEX
8
1
10
-1425.6661
20
6178.8372
0
VERTEX
8
1
10
-1454.6034
20
6110.5245
0
VERTEX
8
1
10
-1483.6591
20
6042.1513
0
VERTEX
8
1
10
-1512.6225
20
5974.2173
0
VERTEX
8
1
10
-1542.2455
20
5904.9459
0
VERTEX
8
1
10
-1570.2953
20
5839.5437
0
VERTEX
8
1
10
-1602.0024
20
5765.9046
0
VERTEX
8
1
10
-1629.8965
20
5701.2625
0
SEQEND
0
TEXT
8
2
62
1
10
-1589.8550
20
5703.6462
40
12.0000
50
-0.8823
1
3\4
0
POLYLINE
8
2
62
1
66
1
6
CONTINUOUS
0
VERTEX
8
2
10
-1074.8661
20
6794.7866
0
VERTEX
8
2
10
-1121.7763
20
6795.0096
0
SEQEND
0
POLYLINE
8
2
62
1
66
1
6
CONTINUOUS
0
VERTEX
8
2
10
-1168.6867
20
6795.2339
0
VERTEX
8
2
10
-1159.4387
20
6791.4292
0
SEQEND
0
TEXT
8
2
62
1
10
-1144.9567
20
6787.3668
40
12.0000
50
68.6474
1
1
0
ENDBLK
5
30
100
AcDbBlockEnd
0
BLOCK
5
31
100
AcDbEntity
8
1
100
AcDbBlockBegin
10
0
20
0
30
0
2
Panel31
70
0
3
Panel31
0
POLYLINE
8
1
62
0
66
1
6
CONTINUOUS
0
VERTEX
8
1
10
3886.5400
20
2316.8000
0
VERTEX
8
1
10
3908.1805
20
2386.1410
0
VERTEX
8
1
10
3935.9326
20
2475.4011
0
VERTEX
8
1
10
3963.5946
20
2564.6586
0
VERTEX
8
1
10
3991.1659
20
2653.9440
0
VERTEX
8
1
10
4018.6467
20
2743.2578
0
VERTEX
8
1
10
4038.3934
20
2807.6529
0
SEQEND
0
POLYLINE
8
1
62
0
66
1
6
CONTINUOUS
0
VERTEX
8
1
10
4038.3934
20
2807.6529
0
VERTEX
8
1
10
4039.1745
20
2807.5465
0
VERTEX
8
1
10
4041.4494
20
2807.2231
0
VERTEX
8
1
10
4045.1152
20
2806.6762
0
VERTEX
8
1
10
4050.0693
20
2805.8994
0
VERTEX
8
1
10
4056.2089
20
2804.8861
0
VERTEX
8
1
10
4063.4314
20
2803.6299
0
VERTEX
8
1
10
4071.6338
20
2802.1244
0
VERTEX
8
1
10
4080.7137
20
2800.3630
0
VERTEX
8
1
10
4090.5681
20
2798.3393
0
VERTEX
8
1
10
4101.0944
20
2796.0469
0
VERTEX
8
1
10
4112.1898
20
2793.4792
0
VERTEX
8
1
10
4123.7516
20
2790.6299
0
VERTEX
8
1
10
4135.6771
20
2787.4924
0
VERTEX
8
1
10
4147.8636
20
2784.0602
0
VERTEX
8
1
10
4160.2082
20
2780.3270
0
VERTEX
8
1
10
4172.6083
20
2776.2862
0
VERTEX
8
1
10
4184.9612
20
2771.9314
0
VERTEX
8
1
10
4197.1640
20
2767.2561
0
VERTEX
8
1
10
4209.1141
20
2762.2538
0
VERTEX
8
1
10
4215.2107
20
2759.4483
0
SEQEND
0
POLYLINE
8
1
62
0
66
1
6
CONTINUOUS
0
VERTEX
8
1
10
4215.2107
20
2759.4483
0
VERTEX
8
1
10
3998.4135
20
2312.8899
0
SEQEND
0
POLYLINE
8
1
62
0
66
1
6
CONTINUOUS
0
VERTEX
8
1
10
3998.4135
20
2312.8899
0
VERTEX
8
1
10
3968.3515
20
2313.9399
0
VERTEX
8
1
10
3927.4313
20
2315.3700
0
VERTEX
8
1
10
3886.5400
20
2316.8000
0
SEQEND
0
POLYLINE
8
2
62
1
66
1
6
CONTINUOUS
0
VERTEX
8
2
10
4206.0743
20
2763.5263
0
VERTEX
8
2
10
4201.7069
20
2754.5304
0
SEQEND
0
TEXT
8
2
62
1
10
3906.8256
20
2336.6933
40
12.0000
50
72.8097
1
CR2/1_1
0
ENDBLK
5
31
100
AcDbBlockEnd
0
BLOCK
5
32
100
AcDbEntity
8
1
100
AcDbBlockBegin
10
0
20
0
30
0
2
Panel32
70
0
3
Panel32
0
POLYLINE
8
1
62
0
66
1
6
CONTINUOUS
0
VERTEX
8
1
10
3886.5400
20
2316.8000
0
VERTEX
8
1
10
3908.1805
20
2386.1410
0
VERTEX
8
1
10
3935.9326
20
2475.4011
0
VERTEX
8
1
10
3938.6450
20
2484.1530
0
SEQEND
0
POLYLINE
8
1
62
0
66
1
6
CONTINUOUS
0
VERTEX
8
1
10
3938.6450
20
2484.1530
0
VERTEX
8
1
10
4206.0743
20
2763.5263
0
SEQEND
0
POLYLINE
8
1
62
0
66
1
6
CONTINUOUS
0
VERTEX
8
1
10
4206.0743
20
2763.5263
0
VERTEX
8
1
10
4209.1141
20
2762.2538
0
VERTEX
8
1
10
4220.7088
20
2756.9182
0
VERTEX
8
1
10
4220.7088
20
2756.9182
0
VERTEX
8
1
10
4247.4807
20
2742.2888
0
VERTEX
8
1
10
4271.5274
20
2725.7537
0
VERTEX
8
1
10
4292.9280
20
2707.4875
0
VERTEX
8
1
10
4311.7619
20
2687.6650
0
VERTEX
8
1
10
4328.1083
20
2666.4607
0
VERTEX
8
1
10
4341.6507
20
2644.6855
0
SEQEND
0
POLYLINE
8
1
62
0
66
1
6
CONTINUOUS
0
VERTEX
8
1
10
4341.6507
20
2644.6855
0
VERTEX
8
1
10
4023.2113
20
2312.0240
0
SEQEND
0
POLYLINE
8
1
62
0
66
1
6
CONTINUOUS
0
VERTEX
8
1
10
4023.2113
20
2312.0240
0
VERTEX
8
1
10
4009.2915
20
2312.5099
0
VERTEX
8
1
10
3968.3515
20
2313.9399
0
VERTEX
8
1
10
3927.4313
20
2315.3700
0
VERTEX
8
1
10
3886.5400
20
2316.8000
0
SEQEND
0
POLYLINE
8
2
62
1
66
1
6
CONTINUOUS
0
VERTEX
8
2
10
4336.1989
20
2653.4516
0
VERTEX
8
2
10
4329.2839
20
2646.2278
0
SEQEND
0
TEXT
8
2
62
1
10
3965.6845
20
2492.8773
40
12.0000
50
46.2513
1
CR2/1_2
0
ENDBLK
5
32
100
AcDbBlockEnd
0
BLOCK
5
33
100
AcDbEntity
8
1
100
AcDbBlockBegin
10
0
20
0
30
0
2
Panel33
70
0
3
Panel33
0
POLYLINE
8
1
62
0
66
1
6
CONTINUOUS
0
VERTEX
8
1
10
3886.5400
20
2316.8000
0
VERTEX
8
1
10
3908.1805
20
2386.1410
0
VERTEX
8
1
10
3919.8191
20
2423.5744
0
SEQEND
0
POLYLINE
8
1
62
0
66
1
6
CONTINUOUS
0
VERTEX
8
1
10
3919.8191
20
2423.5744
0
VERTEX
8
1
10
4336.1989
20
2653.4516
0
SEQEND
0
POLYLINE
8
1
62
0
66
1
6
CONTINUOUS
0
VERTEX
8
1
10
4336.1989
20
2653.4516
0
VERTEX
8
1
10
4342.0464
20
2644.0493
0
VERTEX
8
1
10
4353.6555
20
2620.6054
0
VERTEX
8
1
10
4363.0148
20
2596.3038
0
VERTEX
8
1
10
4370.2035
20
2571.3190
0
VERTEX
8
1
10
4375.3009
20
2545.8257
0
VERTEX
8
1
10
4378.3863
20
2519.9986
0
VERTEX
8
1
10
4379.5388
20
2494.0123
0
VERTEX
8
1
10
4378.9257
20
2471.2984
0
SEQEND
0
POLYLINE
8
1
62
0
66
1
6
CONTINUOUS
0
VERTEX
8
1
10
4378.9257
20
2471.2984
0
VERTEX
8
1
10
4086.4324
20
2309.8171
0
SEQEND
0
POLYLINE
8
1
62
0
66
1
6
CONTINUOUS
0
VERTEX
8
1
10
4086.4324
20
2309.8171
0
VERTEX
8
1
10
4050.2519
20
2311.0799
0
VERTEX
8
1
10
4009.2915
20
2312.5099
0
VERTEX
8
1
10
3968.3515
20
2313.9399
0
VERTEX
8
1
10
3927.4313
20
2315.3700
0
VERTEX
8
1
10
3886.5400
20
2316.8000
0
SEQEND
0
POLYLINE
8
2
62
1
66
1
6
CONTINUOUS
0
VERTEX
8
2
10
4379.2387
20
2482.8940
0
VERTEX
8
2
10
4370.4842
20
2478.0608
0
SEQEND
0
TEXT
8
2
62
1
10
3948.2300
20
2423.8389
40
12.0000
50
28.9024
1
CR2/1_3
0
ENDBLK
5
33
100
AcDbBlockEnd
0
BLOCK
5
34
100
AcDbEntity
8
1
100
AcDbBlockBegin
10
0
20
0
30
0
2
Panel34
70
0
3
Panel34
0
POLYLINE
8
1
62
0
66
1
6
CONTINUOUS
0
VERTEX
8
1
10
3886.5400
20
2316.8000
0
VERTEX
8
1
10
3908.1805
20
2386.1410
0
VERTEX
8
1
10
3912.8183
20
2401.0576
0
SEQEND
0
POLYLINE
8
1
62
0
66
1
6
CONTINUOUS
0
VERTEX
8
1
10
3912.8183
20
2401.0576
0
VERTEX
8
1
10
4379.2387
20
2482.8940
0
SEQEND
0
POLYLINE
8
1
62
0
66
1
6
CONTINUOUS
0
VERTEX
8
1
10
4379.2387
20
2482.8940
0
VERTEX
8
1
10
4378.8377
20
2468.0415
0
VERTEX
8
1
10
4376.3623
20
2442.2608
0
VERTEX
8
1
10
4372.1918
20
2416.8448
0
VERTEX
8
1
10
4366.4054
20
2391.9684
0
VERTEX
8
1
10
4359.0824
20
2367.8060
0
VERTEX
8
1
10
4350.3020
20
2344.5323
0
VERTEX
8
1
10
4340.1435
20
2322.3220
0
VERTEX
8
1
10
4328.6860
20
2301.3498
0
SEQEND
0
POLYLINE
8
1
62
0
66
1
6
CONTINUOUS
0
VERTEX
8
1
10
4328.6860
20
2301.3498
0
VERTEX
8
1
10
4295.9244
20
2302.4998
0
VERTEX
8
1
10
4255.0238
20
2303.9299
0
VERTEX
8
1
10
4214.1038
20
2305.3599
0
VERTEX
8
1
10
4173.1537
20
2306.7899
0
VERTEX
8
1
10
4132.1933
20
2308.2199
0
VERTEX
8
1
10
4091.2226
20
2309.6499
0
VERTEX
8
1
10
4050.2519
20
2311.0799
0
VERTEX
8
1
10
4009.2915
20
2312.5099
0
VERTEX
8
1
10
3968.3515
20
2313.9399
0
VERTEX
8
1
10
3927.4313
20
2315.3700
0
VERTEX
8
1
10
3886.5400
20
2316.8000
0
SEQEND
0
POLYLINE
8
2
62
1
66
1
6
CONTINUOUS
0
VERTEX
8
2
10
4334.0501
20
2311.1685
0
VERTEX
8
2
10
4324.0562
20
2311.5177
0
SEQEND
0
TEXT
8
2
62
1
10
3939.7752
20
2392.0811
40
12.0000
50
9.9516
1
CR2/1_4
0
ENDBLK
5
34
100
AcDbBlockEnd
0
BLOCK
5
35
100
AcDbEntity
8
1
100
AcDbBlockBegin
10
0
20
0
30
0
2
Panel35
70
0
3
Panel35
0
POLYLINE
8
1
62
0
66
1
6
CONTINUOUS
0
VERTEX
8
1
10
3848.2514
20
2203.8823
0
VERTEX
8
1
10
3849.8200
20
2208.4900
0
VERTEX
8
1
10
3879.8600
20
2297.0500
0
VERTEX
8
1
10
3886.5400
20
2316.8000
0
VERTEX
8
1
10
3908.1805
20
2386.1410
0
VERTEX
8
1
10
3920.1208
20
2424.5449
0
SEQEND
0
POLYLINE
8
1
62
0
66
1
6
CONTINUOUS
0
VERTEX
8
1
10
3920.1208
20
2424.5449
0
VERTEX
8
1
10
4334.0501
20
2311.1685
0
SEQEND
0
POLYLINE
8
1
62
0
66
1
6
CONTINUOUS
0
VERTEX
8
1
10
4334.0501
20
2311.1685
0
VERTEX
8
1
10
4328.6860
20
2301.3498
0
VERTEX
8
1
10
4328.6860
20
2301.3498
0
VERTEX
8
1
10
4324.0923
20
2293.8759
0
VERTEX
8
1
10
4319.3204
20
2286.5998
0
VERTEX
8
1
10
4314.3621
20
2279.5226
0
VERTEX
8
1
10
4309.2090
20
2272.6455
0
VERTEX
8
1
10
4303.8528
20
2265.9695
0
VERTEX
8
1
10
4298.2852
20
2259.4959
0
VERTEX
8
1
10
4292.4978
20
2253.2257
0
VERTEX
8
1
10
4286.4824
20
2247.1601
0
VERTEX
8
1
10
4280.2305
20
2241.3002
0
VERTEX
8
1
10
4273.7339
20
2235.6470
0
VERTEX
8
1
10
4266.9843
20
2230.2019
0
VERTEX
8
1
10
4259.9732
20
2224.9658
0
VERTEX
8
1
10
4252.6924
20
2219.9399
0
VERTEX
8
1
10
4245.1336
20
2215.1253
0
VERTEX
8
1
10
4237.2884
20
2210.5232
0
VERTEX
8
1
10
4229.1485
20
2206.1347
0
VERTEX
8
1
10
4220.7056
20
2201.9609
0
VERTEX
8
1
10
4211.9514
20
2198.0030
0
VERTEX
8
1
10
4202.8775
20
2194.2620
0
VERTEX
8
1
10
4193.4755
20
2190.7391
0
VERTEX
8
1
10
4193.4755
20
2190.7391
0
VERTEX
8
1
10
4172.9756
20
2184.1294
0
VERTEX
8
1
10
4151.2761
20
2178.4016
0
VERTEX
8
1
10
4128.6206
20
2173.4968
0
VERTEX
8
1
10
4105.2523
20
2169.3564
0
VERTEX
8
1
10
4081.4147
20
2165.9217
0
VERTEX
8
1
10
4057.3511
20
2163.1340
0
VERTEX
8
1
10
4033.3050
20
2160.9346
0
VERTEX
8
1
10
4010.8148
20
2159.3557
0
SEQEND
0
POLYLINE
8
1
62
0
66
1
6
CONTINUOUS
0
VERTEX
8
1
10
4010.8148
20
2159.3557
0
VERTEX
8
1
10
3848.2514
20
2203.8823
0
SEQEND
0
POLYLINE
8
2
62
1
66
1
6
CONTINUOUS
0
VERTEX
8
2
10
4040.5013
20
2161.5928
0
VERTEX
8
2
10
4030.8566
20
2164.2346
0
SEQEND
0
TEXT
8
2
62
1
10
3940.6663
20
2404.9201
40
12.0000
50
344.6822
1
CR2/1_5
0
ENDBLK
5
35
100
AcDbBlockEnd
0
BLOCK
5
36
100
AcDbEntity
8
1
100
AcDbBlockBegin
10
0
20
0
30
0
2
Panel36
70
0
3
Panel36
0
POLYLINE
8
1
62
0
66
1
6
CONTINUOUS
0
VERTEX
8
1
10
3948.1184
20
2514.7212
0
VERTEX
8
1
10
4040.5013
20
2161.5928
0
SEQEND
0
POLYLINE
8
1
62
0
66
1
6
CONTINUOUS
0
VERTEX
8
1
10
4040.5013
20
2161.5928
0
VERTEX
8
1
10
4033.3050
20
2160.9346
0
VERTEX
8
1
10
4009.5197
20
2159.2648
0
VERTEX
8
1
10
3986.2385
20
2158.0659
0
VERTEX
8
1
10
3963.7050
20
2157.2792
0
VERTEX
8
1
10
3942.1624
20
2156.8460
0
VERTEX
8
1
10
3921.8541
20
2156.7076
0
VERTEX
8
1
10
3903.0236
20
2156.8054
0
VERTEX
8
1
10
3885.9141
20
2157.0805
0
VERTEX
8
1
10
3870.7692
20
2157.4744
0
VERTEX
8
1
10
3857.8321
20
2157.9282
0
VERTEX
8
1
10
3847.3462
20
2158.3834
0
VERTEX
8
1
10
3839.5550
20
2158.7812
0
VERTEX
8
1
10
3834.7018
20
2159.0629
0
VERTEX
8
1
10
3833.0300
20
2159.1699
0
SEQEND
0
POLYLINE
8
1
62
0
66
1
6
CONTINUOUS
0
VERTEX
8
1
10
3833.0300
20
2159.1699
0
VERTEX
8
1
10
3849.8200
20
2208.4900
0
VERTEX
8
1
10
3879.8600
20
2297.0500
0
VERTEX
8
1
10
3886.5400
20
2316.8000
0
VERTEX
8
1
10
3908.1805
20
2386.1410
0
VERTEX
8
1
10
3935.9326
20
2475.4011
0
VERTEX
8
1
10
3948.1184
20
2514.7212
0
SEQEND
0
TEXT
8
2
62
1
10
3941.3853
20
2487.1184
40
12.0000
50
284.6607
1
CR2/1_6
0
ENDBLK
5
36
100
AcDbBlockEnd
0
BLOCK
5
37
100
AcDbEntity
8
1
100
AcDbBlockBegin
10
0
20
0
30
0
2
Panel37
70
0
3
Panel37
0
POLYLINE
8
1
62
0
66
1
6
CONTINUOUS
0
VERTEX
8
1
10
3886.5500
20
2316.8000
0
VERTEX
8
1
10
3926.9517
20
2310.5197
0
VERTEX
8
1
10
3967.3819
20
2304.2397
0
VERTEX
8
1
10
4007.8420
20
2297.9597
0
VERTEX
8
1
10
4048.3222
20
2291.6797
0
VERTEX
8
1
10
4088.8025
20
2285.3996
0
VERTEX
8
1
10
4129.2828
20
2279.1196
0
VERTEX
8
1
10
4130.3828
20
2278.9496
0
SEQEND
0
POLYLINE
8
1
62
0
66
1
6
CONTINUOUS
0
VERTEX
8
1
10
4130.3828
20
2278.9496
0
VERTEX
8
1
10
4131.1364
20
2280.2382
0
VERTEX
8
1
10
4133.2617
20
2283.9744
0
VERTEX
8
1
10
4136.5558
20
2289.9639
0
VERTEX
8
1
10
4140.8158
20
2298.0122
0
VERTEX
8
1
10
4145.8388
20
2307.9251
0
VERTEX
8
1
10
4151.4218
20
2319.5080
0
VERTEX
8
1
10
4157.3619
20
2332.5667
0
VERTEX
8
1
10
4163.4560
20
2346.9067
0
VERTEX
8
1
10
4169.5014
20
2362.3337
0
VERTEX
8
1
10
4175.2949
20
2378.6533
0
VERTEX
8
1
10
4180.6338
20
2395.6711
0
VERTEX
8
1
10
4185.3150
20
2413.1927
0
VERTEX
8
1
10
4189.1356
20
2431.0238
0
VERTEX
8
1
10
4191.8927
20
2448.9699
0
VERTEX
8
1
10
4193.3833
20
2466.8367
0
VERTEX
8
1
10
4193.4045
20
2484.4299
0
VERTEX
8
1
10
4191.7533
20
2501.5549
0
VERTEX
8
1
10
4188.2268
20
2518.0176
0
VERTEX
8
1
10
4182.6220
20
2533.6234
0
VERTEX
8
1
10
4174.7361
20
2548.1779
0
VERTEX
8
1
10
4167.4546
20
2558.0526
0
VERTEX
8
1
10
4159.0123
20
2567.2777
0
VERTEX
8
1
10
4149.5753
20
2575.8685
0
VERTEX
8
1
10
4139.3092
20
2583.8406
0
VERTEX
8
1
10
4128.3802
20
2591.2095
0
VERTEX
8
1
10
4116.9539
20
2597.9907
0
VERTEX
8
1
10
4105.1964
20
2604.1997
0
VERTEX
8
1
10
4093.2735
20
2609.8519
0
VERTEX
8
1
10
4081.3511
20
2614.9629
0
VERTEX
8
1
10
4069.5951
20
2619.5482
0
VERTEX
8
1
10
4058.1714
20
2623.6233
0
VERTEX
8
1
10
4047.2459
20
2627.2036
0
VERTEX
8
1
10
4036.9845
20
2630.3047
0
VERTEX
8
1
10
4027.5530
20
2632.9420
0
VERTEX
8
1
10
4019.1174
20
2635.1310
0
VERTEX
8
1
10
4011.8435
20
2636.8874
0
VERTEX
8
1
10
4005.8973
20
2638.2264
0
VERTEX
8
1
10
4001.4446
20
2639.1637
0
VERTEX
8
1
10
3998.6513
20
2639.7147
0
VERTEX
8
1
10
3997.6834
20
2639.8949
0
SEQEND
0
POLYLINE
8
1
62
0
66
1
6
CONTINUOUS
0
VERTEX
8
1
10
3997.6834
20
2639.8949
0
VERTEX
8
1
10
3971.0859
20
2562.2030
0
VERTEX
8
1
10
3940.7260
20
2473.8267
0
VERTEX
8
1
10
3910.2761
20
2385.4511
0
VERTEX
8
1
10
3886.5500
20
2316.8000
0
SEQEND
0
TEXT
8
2
62
1
10
3912.7992
20
2350.0713
40
12.0000
50
71.0186
1
CR2/2
0
ENDBLK
5
37
100
AcDbBlockEnd
0
BLOCK
5
38
100
AcDbEntity
8
1
100
AcDbBlockBegin
10
0
20
0
30
0
2
Panel38
70
0
3
Panel38
0
POLYLINE
8
1
62
0
66
1
6
CONTINUOUS
0
VERTEX
8
1
10
3886.5500
20
2316.8000
0
VERTEX
8
1
10
3926.9515
20
2310.5198
0
VERTEX
8
1
10
3967.3816
20
2304.2398
0
VERTEX
8
1
10
4007.8416
20
2297.9597
0
VERTEX
8
1
10
4048.3219
20
2291.6797
0
VERTEX
8
1
10
4088.8024
20
2285.3996
0
VERTEX
8
1
10
4096.5025
20
2284.1996
0
SEQEND
0
POLYLINE
8
1
62
0
66
1
6
CONTINUOUS
0
VERTEX
8
1
10
4096.5025
20
2284.1996
0
VERTEX
8
1
10
4097.1770
20
2285.4292
0
VERTEX
8
1
10
4099.0743
20
2288.9907
0
VERTEX
8
1
10
4102.0053
20
2294.6935
0
VERTEX
8
1
10
4105.7808
20
2302.3471
0
VERTEX
8
1
10
4110.2116
20
2311.7607
0
VERTEX
8
1
10
4115.1086
20
2322.7437
0
VERTEX
8
1
10
4120.2826
20
2335.1054
0
VERTEX
8
1
10
4125.5444
20
2348.6552
0
VERTEX
8
1
10
4130.7049
20
2363.2025
0
VERTEX
8
1
10
4135.5748
20
2378.5566
0
VERTEX
8
1
10
4139.9651
20
2394.5269
0
VERTEX
8
1
10
4143.6866
20
2410.9227
0
VERTEX
8
1
10
4146.5501
20
2427.5533
0
VERTEX
8
1
10
4148.3663
20
2444.2281
0
VERTEX
8
1
10
4148.9462
20
2460.7566
0
VERTEX
8
1
10
4148.1007
20
2476.9479
0
VERTEX
8
1
10
4145.6404
20
2492.6116
0
VERTEX
8
1
10
4141.3762
20
2507.5568
0
VERTEX
8
1
10
4135.1191
20
2521.5931
0
VERTEX
8
1
10
4126.6797
20
2534.5296
0
VERTEX
8
1
10
4120.2508
20
2541.9714
0
VERTEX
8
1
10
4113.0206
20
2548.9224
0
VERTEX
8
1
10
4105.1112
20
2555.3943
0
VERTEX
8
1
10
4096.6451
20
2561.3991
0
VERTEX
8
1
10
4087.7445
20
2566.9485
0
VERTEX
8
1
10
4078.5317
20
2572.0543
0
VERTEX
8
1
10
4069.1291
20
2576.7284
0
VERTEX
8
1
10
4059.6590
20
2580.9825
0
VERTEX
8
1
10
4050.2436
20
2584.8284
0
VERTEX
8
1
10
4041.0052
20
2588.2780
0
VERTEX
8
1
10
4032.0663
20
2591.3430
0
VERTEX
8
1
10
4023.5490
20
2594.0352
0
VERTEX
8
1
10
4015.5757
20
2596.3665
0
VERTEX
8
1
10
4008.2687
20
2598.3487
0
VERTEX
8
1
10
4001.7503
20
2599.9935
0
VERTEX
8
1
10
3996.1428
20
2601.3128
0
VERTEX
8
1
10
3991.5685
20
2602.3184
0
VERTEX
8
1
10
3988.1497
20
2603.0221
0
VERTEX
8
1
10
3986.0088
20
2603.4356
0
VERTEX
8
1
10
3985.2679
20
2603.5708
0
SEQEND
0
POLYLINE
8
1
62
0
66
1
6
CONTINUOUS
0
VERTEX
8
1
10
3985.2679
20
2603.5708
0
VERTEX
8
1
10
3971.1040
20
2562.1967
0
VERTEX
8
1
10
3940.7375
20
2473.8226
0
VERTEX
8
1
10
3910.2812
20
2385.4492
0
VERTEX
8
1
10
3886.5500
20
2316.8000
0
SEQEND
0
TEXT
8
2
62
1
10
3912.8074
20
2350.0648
40
12.0000
50
71.0045
1
CR2/3
0
ENDBLK
5
38
100
AcDbBlockEnd
0
BLOCK
5
39
100
AcDbEntity
8
1
100
AcDbBlockBegin
10
0
20
0
30
0
2
Panel39
70
0
3
Panel39
0
POLYLINE
8
1
62
0
66
1
6
CONTINUOUS
0
VERTEX
8
1
10
3886.5500
20
2316.8000
0
VERTEX
8
1
10
3926.9511
20
2310.5198
0
VERTEX
8
1
10
3967.3811
20
2304.2398
0
VERTEX
8
1
10
4007.8413
20
2297.9598
0
VERTEX
8
1
10
4048.3218
20
2291.6797
0
VERTEX
8
1
10
4053.3819
20
2290.8997
0
SEQEND
0
POLYLINE
8
1
62
0
66
1
6
CONTINUOUS
0
VERTEX
8
1
10
4053.3819
20
2290.8997
0
VERTEX
8
1
10
4054.0535
20
2292.0570
0
VERTEX
8
1
10
4055.9427
20
2295.4057
0
VERTEX
8
1
10
4058.8608
20
2300.7607
0
VERTEX
8
1
10
4062.6192
20
2307.9373
0
VERTEX
8
1
10
4067.0291
20
2316.7504
0
VERTEX
8
1
10
4071.9021
20
2327.0153
0
VERTEX
8
1
10
4077.0494
20
2338.5468
0
VERTEX
8
1
10
4082.2824
20
2351.1602
0
VERTEX
8
1
10
4087.4125
20
2364.6704
0
VERTEX
8
1
10
4092.2511
20
2378.8927
0
VERTEX
8
1
10
4096.6094
20
2393.6420
0
VERTEX
8
1
10
4100.2989
20
2408.7335
0
VERTEX
8
1
10
4103.1309
20
2423.9822
0
VERTEX
8
1
10
4104.9169
20
2439.2032
0
VERTEX
8
1
10
4105.4680
20
2454.2116
0
VERTEX
8
1
10
4104.5958
20
2468.8225
0
VERTEX
8
1
10
4102.1116
20
2482.8509
0
VERTEX
8
1
10
4097.8267
20
2496.1119
0
VERTEX
8
1
10
4091.5525
20
2508.4206
0
VERTEX
8
1
10
4083.1003
20
2519.5922
0
VERTEX
8
1
10
4077.7854
20
2524.9107
0
VERTEX
8
1
10
4071.9163
20
2529.8782
0
VERTEX
8
1
10
4065.5824
20
2534.5031
0
VERTEX
8
1
10
4058.8733
20
2538.7939
0
VERTEX
8
1
10
4051.8781
20
2542.7590
0
VERTEX
8
1
10
4044.6864
20
2546.4070
0
VERTEX
8
1
10
4037.3876
20
2549.7462
0
VERTEX
8
1
10
4030.0709
20
2552.7852
0
VERTEX
8
1
10
4022.8259
20
2555.5325
0
VERTEX
8
1
10
4015.7419
20
2557.9964
0
VERTEX
8
1
10
4008.9083
20
2560.1854
0
VERTEX
8
1
10
4002.4146
20
2562.1081
0
VERTEX
8
1
10
3996.3499
20
2563.7729
0
VERTEX
8
1
10
3990.8039
20
2565.1883
0
VERTEX
8
1
10
3985.8659
20
2566.3626
0
VERTEX
8
1
10
3981.6252
20
2567.3045
0
VERTEX
8
1
10
3978.1713
20
2568.0223
0
VERTEX
8
1
10
3975.5935
20
2568.5245
0
VERTEX
8
1
10
3973.9813
20
2568.8197
0
VERTEX
8
1
10
3973.4241
20
2568.9162
0
SEQEND
0
POLYLINE
8
1
62
0
66
1
6
CONTINUOUS
0
VERTEX
8
1
10
3973.4241
20
2568.9162
0
VERTEX
8
1
10
3971.1175
20
2562.1919
0
VERTEX
8
1
10
3940.7462
20
2473.8195
0
VERTEX
8
1
10
3910.2849
20
2385.4478
0
VERTEX
8
1
10
3886.5500
20
2316.8000
0
SEQEND
0
TEXT
8
2
62
1
10
3912.8175
20
2350.0569
40
12.0000
50
70.9871
1
CR2/4
0
ENDBLK
5
39
100
AcDbBlockEnd
0
BLOCK
5
40
100
AcDbEntity
8
1
100
AcDbBlockBegin
10
0
20
0
30
0
2
Panel40
70
0
3
Panel40
0
POLYLINE
8
1
62
0
66
1
6
CONTINUOUS
0
VERTEX
8
1
10
6358.6200
20
2252.0800
0
VERTEX
8
1
10
6358.7600
20
2269.9000
0
VERTEX
8
1
10
6359.4800
20
2364.3800
0
VERTEX
8
1
10
6360.1600
20
2458.8600
0
VERTEX
8
1
10
6360.4300
20
2499.0500
0
SEQEND
0
POLYLINE
8
1
62
0
66
1
6
CONTINUOUS
0
VERTEX
8
1
10
6360.4300
20
2499.0500
0
VERTEX
8
1
10
6359.5450
20
2499.0516
0
VERTEX
8
1
10
6356.9852
20
2499.0259
0
VERTEX
8
1
10
6352.8931
20
2498.9269
0
VERTEX
8
1
10
6347.4112
20
2498.7088
0
VERTEX
8
1
10
6340.6821
20
2498.3255
0
VERTEX
8
1
10
6332.8485
20
2497.7312
0
VERTEX
8
1
10
6324.0528
20
2496.8799
0
VERTEX
8
1
10
6314.4376
20
2495.7258
0
VERTEX
8
1
10
6304.1455
20
2494.2229
0
VERTEX
8
1
10
6293.3191
20
2492.3253
0
VERTEX
8
1
10
6282.1009
20
2489.9870
0
VERTEX
8
1
10
6270.6335
20
2487.1622
0
VERTEX
8
1
10
6259.0595
20
2483.8049
0
VERTEX
8
1
10
6247.5214
20
2479.8693
0
VERTEX
8
1
10
6236.1618
20
2475.3093
0
VERTEX
8
1
10
6225.1232
20
2470.0791
0
VERTEX
8
1
10
6214.5483
20
2464.1328
0
VERTEX
8
1
10
6204.5796
20
2457.4244
0
VERTEX
8
1
10
6195.3597
20
2449.9080
0
VERTEX
8
1
10
6187.0311
20
2441.5377
0
VERTEX
8
1
10
6179.4536
20
2431.9442
0
VERTEX
8
1
10
6172.9163
20
2421.5264
0
VERTEX
8
1
10
6167.3487
20
2410.4267
0
VERTEX
8
1
10
6162.6804
20
2398.7873
0
VERTEX
8
1
10
6158.8410
20
2386.7506
0
VERTEX
8
1
10
6155.7599
20
2374.4589
0
VERTEX
8
1
10
6153.3667
20
2362.0546
0
VERTEX
8
1
10
6151.5910
20
2349.6800
0
VERTEX
8
1
10
6150.3622
20
2337.4774
0
VERTEX
8
1
10
6149.6099
20
2325.5892
0
VERTEX
8
1
10
6149.2637
20
2314.1577
0
VERTEX
8
1
10
6149.2531
20
2303.3252
0
VERTEX
8
1
10
6149.5076
20
2293.2340
0
VERTEX
8
1
10
6149.9568
20
2284.0266
0
VERTEX
8
1
10
6150.5302
20
2275.8451
0
VERTEX
8
1
10
6151.1574
20
2268.8321
0
VERTEX
8
1
10
6151.7678
20
2263.1297
0
VERTEX
8
1
10
6152.2911
20
2258.8804
0
VERTEX
8
1
10
6152.6567
20
2256.2264
0
VERTEX
8
1
10
6152.7942
20
2255.3101
0
SEQEND
0
POLYLINE
8
1
62
0
66
1
6
CONTINUOUS
0
VERTEX
8
1
10
6152.7942
20
2255.3101
0
VERTEX
8
1
10
6176.6413
20
2254.9145
0
VERTEX
8
1
10
6211.4040
20
2254.3476
0
VERTEX
8
1
10
6246.8281
20
2253.7815
0
VERTEX
8
1
10
6283.0588
20
2253.2154
0
VERTEX
8
1
10
6320.2462
20
2252.6486
0
VERTEX
8
1
10
6358.6200
20
2252.0800
0
SEQEND
0
TEXT
8
2
62
1
10
6278.6612
20
2255.3351
40
12.0000
50
-0.8991
1
TR2/1
0
ENDBLK
5
40
100
AcDbBlockEnd
0
BLOCK
5
41
100
AcDbEntity
8
1
100
AcDbBlockBegin
10
0
20
0
30
0
2
Panel41
70
0
3
Panel41
0
POLYLINE
8
1
62
0
66
1
6
CONTINUOUS
0
VERTEX
8
1
10
6358.6200
20
2252.0800
0
VERTEX
8
1
10
6358.7600
20
2269.9000
0
VERTEX
8
1
10
6359.4800
20
2364.3800
0
VERTEX
8
1
10
6360.1600
20
2458.8600
0
VERTEX
8
1
10
6360.2200
20
2468.4200
0
SEQEND
0
POLYLINE
8
1
62
0
66
1
6
CONTINUOUS
0
VERTEX
8
1
10
6360.2200
20
2468.4200
0
VERTEX
8
1
10
6359.5018
20
2468.4167
0
VERTEX
8
1
10
6357.4236
20
2468.3828
0
VERTEX
8
1
10
6354.0995
20
2468.2827
0
VERTEX
8
1
10
6349.6438
20
2468.0806
0
VERTEX
8
1
10
6344.1708
20
2467.7409
0
VERTEX
8
1
10
6337.7948
20
2467.2277
0
VERTEX
8
1
10
6330.6301
20
2466.5054
0
VERTEX
8
1
10
6322.7909
20
2465.5382
0
VERTEX
8
1
10
6314.3915
20
2464.2904
0
VERTEX
8
1
10
6305.5463
20
2462.7262
0
VERTEX
8
1
10
6296.3694
20
2460.8100
0
VERTEX
8
1
10
6286.9752
20
2458.5060
0
VERTEX
8
1
10
6277.4779
20
2455.7785
0
VERTEX
8
1
10
6267.9918
20
2452.5918
0
VERTEX
8
1
10
6258.6311
20
2448.9101
0
VERTEX
8
1
10
6249.5103
20
2444.6976
0
VERTEX
8
1
10
6240.7435
20
2439.9188
0
VERTEX
8
1
10
6232.4450
20
2434.5378
0
VERTEX
8
1
10
6224.7291
20
2428.5189
0
VERTEX
8
1
10
6217.7100
20
2421.8264
0
VERTEX
8
1
10
6210.7064
20
2413.4172
0
VERTEX
8
1
10
6204.6770
20
2404.2287
0
VERTEX
8
1
10
6199.5554
20
2394.3919
0
VERTEX
8
1
10
6195.2750
20
2384.0375
0
VERTEX
8
1
10
6191.7694
20
2373.2966
0
VERTEX
8
1
10
6188.9720
20
2362.3000
0
VERTEX
8
1
10
6186.8164
20
2351.1786
0
VERTEX
8
1
10
6185.2359
20
2340.0633
0
VERTEX
8
1
10
6184.1641
20
2329.0850
0
VERTEX
8
1
10
6183.5345
20
2318.3747
0
VERTEX
8
1
10
6183.2805
20
2308.0631
0
VERTEX
8
1
10
6183.3357
20
2298.2812
0
VERTEX
8
1
10
6183.6334
20
2289.1599
0
VERTEX
8
1
10
6184.1073
20
2280.8301
0
VERTEX
8
1
10
6184.6908
20
2273.4226
0
VERTEX
8
1
10
6185.3173
20
2267.0685
0
VERTEX
8
1
10
6185.9204
20
2261.8985
0
VERTEX
8
1
10
6186.4335
20
2258.0436
0
VERTEX
8
1
10
6186.7902
20
2255.6347
0
VERTEX
8
1
10
6186.9239
20
2254.8026
0
SEQEND
0
POLYLINE
8
1
62
0
66
1
6
CONTINUOUS
0
VERTEX
8
1
10
6186.9239
20
2254.8026
0
VERTEX
8
1
10
6211.4044
20
2254.3987
0
VERTEX
8
1
10
6246.8289
20
2253.8198
0
VERTEX
8
1
10
6283.0601
20
2253.2409
0
VERTEX
8
1
10
6320.2452
20
2252.6613
0
VERTEX
8
1
10
6358.6200
20
2252.0800
0
SEQEND
0
TEXT
8
2
62
1
10
6278.6618
20
2255.3482
40
12.0000
50
-0.9085
1
TR2/2
0
ENDBLK
5
41
100
AcDbBlockEnd
0
BLOCK
5
42
100
AcDbEntity
8
1
100
AcDbBlockBegin
10
0
20
0
30
0
2
Panel42
70
0
3
Panel42
0
POLYLINE
8
1
62
0
66
1
6
CONTINUOUS
0
VERTEX
8
1
10
6358.6200
20
2252.0800
0
VERTEX
8
1
10
6358.7600
20
2269.9000
0
VERTEX
8
1
10
6359.4800
20
2364.3800
0
VERTEX
8
1
10
6360.1600
20
2458.8600
0
VERTEX
8
1
10
6360.8000
20
2553.3300
0
VERTEX
8
1
10
6361.3100
20
2635.1700
0
SEQEND
0
POLYLINE
8
1
62
0
66
1
6
CONTINUOUS
0
VERTEX
8
1
10
6361.3100
20
2635.1700
0
VERTEX
8
1
10
6360.6512
20
2635.1676
0
VERTEX
8
1
10
6358.7303
20
2635.1490
0
VERTEX
8
1
10
6355.6300
20
2635.0971
0
VERTEX
8
1
10
6351.4335
20
2634.9947
0
VERTEX
8
1
10
6346.2236
20
2634.8246
0
VERTEX
8
1
10
6340.0834
20
2634.5699
0
VERTEX
8
1
10
6333.0957
20
2634.2133
0
VERTEX
8
1
10
6325.3435
20
2633.7376
0
VERTEX
8
1
10
6316.9098
20
2633.1259
0
VERTEX
8
1
10
6307.8775
20
2632.3609
0
VERTEX
8
1
10
6298.3296
20
2631.4255
0
VERTEX
8
1
10
6288.3490
20
2630.3025
0
VERTEX
8
1
10
6278.0188
20
2628.9749
0
VERTEX
8
1
10
6267.4218
20
2627.4256
0
VERTEX
8
1
10
6256.6410
20
2625.6373
0
VERTEX
8
1
10
6245.7594
20
2623.5929
0
VERTEX
8
1
10
6234.8599
20
2621.2754
0
VERTEX
8
1
10
6224.0254
20
2618.6675
0
VERTEX
8
1
10
6213.3390
20
2615.7522
0
VERTEX
8
1
10
6202.8836
20
2612.5123
0
VERTEX
8
1
10
6202.8836
20
2612.5123
0
VERTEX
8
1
10
6178.7898
20
2603.2676
0
VERTEX
8
1
10
6164.3672
20
2596.0824
0
SEQEND
0
POLYLINE
8
1
62
0
66
1
6
CONTINUOUS
0
VERTEX
8
1
10
6164.3672
20
2596.0824
0
VERTEX
8
1
10
6246.4512
20
2254.5307
0
SEQEND
0
POLYLINE
8
1
62
0
66
1
6
CONTINUOUS
0
VERTEX
8
1
10
6246.4512
20
2254.5307
0
VERTEX
8
1
10
6246.8246
20
2254.5222
0
VERTEX
8
1
10
6283.0604
20
2253.7109
0
VERTEX
8
1
10
6320.2516
20
2252.8974
0
VERTEX
8
1
10
6358.6200
20
2252.0800
0
SEQEND
0
POLYLINE
8
2
62
1
66
1
6
CONTINUOUS
0
VERTEX
8
2
10
6173.5523
20
2600.6583
0
VERTEX
8
2
10
6175.8890
20
2590.9351
0
SEQEND
0
TEXT
8
2
62
1
10
6357.2956
20
2277.0899
40
12.0000
50
89.5977
1
TR2/3_1
0
ENDBLK
5
42
100
AcDbBlockEnd
0
BLOCK
5
43
100
AcDbEntity
8
1
100
AcDbBlockBegin
10
0
20
0
30
0
2
Panel43
70
0
3
Panel43
0
POLYLINE
8
1
62
0
66
1
6
CONTINUOUS
0
VERTEX
8
1
10
6358.6200
20
2252.0800
0
VERTEX
8
1
10
6358.7600
20
2269.9000
0
VERTEX
8
1
10
6359.4800
20
2364.3800
0
VERTEX
8
1
10
6359.6660
20
2390.2181
0
SEQEND
0
POLYLINE
8
1
62
0
66
1
6
CONTINUOUS
0
VERTEX
8
1
10
6359.6660
20
2390.2181
0
VERTEX
8
1
10
6173.5523
20
2600.6583
0
SEQEND
0
POLYLINE
8
1
62
0
66
1
6
CONTINUOUS
0
VERTEX
8
1
10
6173.5523
20
2600.6583
0
VERTEX
8
1
10
6156.5203
20
2592.1731
0
VERTEX
8
1
10
6136.0523
20
2579.3897
0
VERTEX
8
1
10
6117.3628
20
2565.0779
0
VERTEX
8
1
10
6100.4292
20
2549.3987
0
VERTEX
8
1
10
6085.2285
20
2532.5126
0
VERTEX
8
1
10
6071.7379
20
2514.5806
0
VERTEX
8
1
10
6059.9346
20
2495.7633
0
VERTEX
8
1
10
6049.7958
20
2476.2214
0
VERTEX
8
1
10
6041.2986
20
2456.1157
0
VERTEX
8
1
10
6039.1701
20
2449.7691
0
SEQEND
0
POLYLINE
8
1
62
0
66
1
6
CONTINUOUS
0
VERTEX
8
1
10
6039.1701
20
2449.7691
0
VERTEX
8
1
10
6211.1249
20
2255.3385
0
SEQEND
0
POLYLINE
8
1
62
0
66
1
6
CONTINUOUS
0
VERTEX
8
1
10
6211.1249
20
2255.3385
0
VERTEX
8
1
10
6211.3873
20
2255.3324
0
VERTEX
8
1
10
6246.8246
20
2254.5222
0
VERTEX
8
1
10
6283.0604
20
2253.7109
0
VERTEX
8
1
10
6320.2516
20
2252.8974
0
VERTEX
8
1
10
6358.6200
20
2252.0800
0
SEQEND
0
POLYLINE
8
2
62
1
66
1
6
CONTINUOUS
0
VERTEX
8
2
10
6043.1121
20
2460.4066
0
VERTEX
8
2
10
6049.7369
20
2452.9158
0
SEQEND
0
TEXT
8
2
62
1
10
6341.9802
20
2407.9513
40
12.0000
50
131.4896
1
TR2/3_2
0
ENDBLK
5
43
100
AcDbBlockEnd
0
BLOCK
5
44
100
AcDbEntity
8
1
100
AcDbBlockBegin
10
0
20
0
30
0
2
Panel44
70
0
3
Panel44
0
POLYLINE
8
1
62
0
66
1
6
CONTINUOUS
0
VERTEX
8
1
10
6358.6200
20
2252.0800
0
VERTEX
8
1
10
6358.7600
20
2269.9000
0
VERTEX
8
1
10
6359.3785
20
2351.0605
0
SEQEND
0
POLYLINE
8
1
62
0
66
1
6
CONTINUOUS
0
VERTEX
8
1
10
6359.3785
20
2351.0605
0
VERTEX
8
1
10
6043.1121
20
2460.4066
0
SEQEND
0
POLYLINE
8
1
62
0
66
1
6
CONTINUOUS
0
VERTEX
8
1
10
6043.1121
20
2460.4066
0
VERTEX
8
1
10
6041.2986
20
2456.1157
0
VERTEX
8
1
10
6034.4203
20
2435.6070
0
VERTEX
8
1
10
6029.1379
20
2414.8560
0
VERTEX
8
1
10
6025.4287
20
2394.0234
0
VERTEX
8
1
10
6023.2698
20
2373.2701
0
VERTEX
8
1
10
6022.6383
20
2352.7566
0
VERTEX
8
1
10
6023.5116
20
2332.6439
0
VERTEX
8
1
10
6025.8666
20
2313.0926
0
VERTEX
8
1
10
6029.6807
20
2294.2634
0
VERTEX
8
1
10
6034.9309
20
2276.3172
0
VERTEX
8
1
10
6041.5945
20
2259.4147
0
SEQEND
0
POLYLINE
8
1
62
0
66
1
6
CONTINUOUS
0
VERTEX
8
1
10
6041.5945
20
2259.4147
0
VERTEX
8
1
10
6042.4430
20
2259.3945
0
VERTEX
8
1
10
6075.3957
20
2258.5787
0
VERTEX
8
1
10
6108.7049
20
2257.7651
0
VERTEX
8
1
10
6142.4254
20
2256.9531
0
VERTEX
8
1
10
6176.6249
20
2256.1424
0
VERTEX
8
1
10
6211.3873
20
2255.3324
0
VERTEX
8
1
10
6246.8246
20
2254.5222
0
VERTEX
8
1
10
6283.0604
20
2253.7109
0
VERTEX
8
1
10
6320.2516
20
2252.8974
0
VERTEX
8
1
10
6358.6200
20
2252.0800
0
SEQEND
0
POLYLINE
8
2
62
1
66
1
6
CONTINUOUS
0
VERTEX
8
2
10
6037.6148
20
2269.5094
0
VERTEX
8
2
10
6047.6121
20
2269.2781
0
SEQEND
0
TEXT
8
2
62
1
10
6335.2607
20
2357.8119
40
12.0000
50
160.9277
1
TR2/3_3
0
ENDBLK
5
44
100
AcDbBlockEnd
0
BLOCK
5
45
100
AcDbEntity
8
1
100
AcDbBlockBegin
10
0
20
0
30
0
2
Panel45
70
0
3
Panel45
0
POLYLINE
8
1
62
0
66
1
6
CONTINUOUS
0
VERTEX
8
1
10
6358.1143
20
2158.4670
0
VERTEX
8
1
10
6358.2139
20
2175.4286
0
VERTEX
8
1
10
6358.6200
20
2252.0800
0
VERTEX
8
1
10
6358.7600
20
2269.9000
0
VERTEX
8
1
10
6359.2981
20
2340.5057
0
SEQEND
0
POLYLINE
8
1
62
0
66
1
6
CONTINUOUS
0
VERTEX
8
1
10
6359.2981
20
2340.5057
0
VERTEX
8
1
10
6037.6148
20
2269.5094
0
SEQEND
0
POLYLINE
8
1
62
0
66
1
6
CONTINUOUS
0
VERTEX
8
1
10
6037.6148
20
2269.5094
0
VERTEX
8
1
10
6041.5945
20
2259.4147
0
VERTEX
8
1
10
6041.5945
20
2259.4147
0
VERTEX
8
1
10
6046.0358
20
2250.2676
0
VERTEX
8
1
10
6050.9381
20
2241.5014
0
VERTEX
8
1
10
6056.3073
20
2233.1027
0
VERTEX
8
1
10
6062.1490
20
2225.0580
0
VERTEX
8
1
10
6068.4691
20
2217.3541
0
VERTEX
8
1
10
6075.2733
20
2209.9774
0
VERTEX
8
1
10
6082.5675
20
2202.9145
0
VERTEX
8
1
10
6090.3574
20
2196.1521
0
VERTEX
8
1
10
6098.6489
20
2189.6767
0
VERTEX
8
1
10
6107.4476
20
2183.4749
0
VERTEX
8
1
10
6116.7594
20
2177.5334
0
VERTEX
8
1
10
6126.5900
20
2171.8386
0
VERTEX
8
1
10
6136.9454
20
2166.3772
0
VERTEX
8
1
10
6147.8311
20
2161.1358
0
VERTEX
8
1
10
6159.2530
20
2156.1009
0
VERTEX
8
1
10
6171.2170
20
2151.2592
0
VERTEX
8
1
10
6183.7287
20
2146.5973
0
VERTEX
8
1
10
6196.7941
20
2142.1017
0
VERTEX
8
1
10
6210.4187
20
2137.7590
0
VERTEX
8
1
10
6224.6085
20
2133.5558
0
VERTEX
8
1
10
6224.6085
20
2133.5558
0
VERTEX
8
1
10
6233.6129
20
2131.0346
0
VERTEX
8
1
10
6233.7053
20
2131.0097
0
SEQEND
0
POLYLINE
8
1
62
0
66
1
6
CONTINUOUS
0
VERTEX
8
1
10
6233.7053
20
2131.0097
0
VERTEX
8
1
10
6358.1143
20
2158.4670
0
SEQEND
0
POLYLINE
8
2
62
1
66
1
6
CONTINUOUS
0
VERTEX
8
2
10
6213.6069
20
2136.8146
0
VERTEX
8
2
10
6223.3719
20
2138.9697
0
SEQEND
0
TEXT
8
2
62
1
10
6335.2088
20
2333.6530
40
12.0000
50
192.4458
1
TR2/3_4
0
ENDBLK
5
45
100
AcDbBlockEnd
0
BLOCK
5
46
100
AcDbEntity
8
1
100
AcDbBlockBegin
10
0
20
0
30
0
2
Panel46
70
0
3
Panel46
0
POLYLINE
8
1
62
0
66
1
6
CONTINUOUS
0
VERTEX
8
1
10
6360.0500
20
2443.5728
0
VERTEX
8
1
10
6213.6069
20
2136.8146
0
SEQEND
0
POLYLINE
8
1
62
0
66
1
6
CONTINUOUS
0
VERTEX
8
1
10
6213.6069
20
2136.8146
0
VERTEX
8
1
10
6224.6085
20
2133.5558
0
VERTEX
8
1
10
6224.6085
20
2133.5558
0
VERTEX
8
1
10
6233.6129
20
2131.0346
0
VERTEX
8
1
10
6242.7674
20
2128.5691
0
VERTEX
8
1
10
6252.0058
20
2126.1672
0
VERTEX
8
1
10
6261.2619
20
2123.8370
0
VERTEX
8
1
10
6270.4696
20
2121.5864
0
VERTEX
8
1
10
6279.5627
20
2119.4233
0
VERTEX
8
1
10
6288.4751
20
2117.3557
0
VERTEX
8
1
10
6297.1405
20
2115.3916
0
VERTEX
8
1
10
6305.4930
20
2113.5388
0
VERTEX
8
1
10
6313.4662
20
2111.8055
0
VERTEX
8
1
10
6320.9940
20
2110.1994
0
VERTEX
8
1
10
6328.0104
20
2108.7287
0
VERTEX
8
1
10
6334.4490
20
2107.4011
0
VERTEX
8
1
10
6340.2438
20
2106.2248
0
VERTEX
8
1
10
6345.3286
20
2105.2076
0
VERTEX
8
1
10
6349.6373
20
2104.3575
0
VERTEX
8
1
10
6353.1036
20
2103.6824
0
VERTEX
8
1
10
6355.6615
20
2103.1904
0
VERTEX
8
1
10
6357.2447
20
2102.8894
0
VERTEX
8
1
10
6357.7872
20
2102.7873
0
SEQEND
0
POLYLINE
8
1
62
0
66
1
6
CONTINUOUS
0
VERTEX
8
1
10
6357.7872
20
2102.7873
0
VERTEX
8
1
10
6358.2139
20
2175.4286
0
VERTEX
8
1
10
6358.6200
20
2252.0800
0
VERTEX
8
1
10
6358.7600
20
2269.9000
0
VERTEX
8
1
10
6359.4800
20
2364.3800
0
VERTEX
8
1
10
6360.0500
20
2443.5728
0
SEQEND
0
TEXT
8
2
62
1
10
6350.6333
20
2420.3656
40
12.0000
50
244.4807
1
TR2/3_5
0
ENDBLK
5
46
100
AcDbBlockEnd
0
BLOCK
5
47
100
AcDbEntity
8
1
100
AcDbBlockBegin
10
0
20
0
30
0
2
Panel47
70
0
3
Panel47
0
POLYLINE
8
1
62
0
66
1
6
CONTINUOUS
0
VERTEX
8
1
10
6222.4800
20
8044.0000
0
VERTEX
8
1
10
6183.1391
20
7959.0880
0
VERTEX
8
1
10
6143.7988
20
7874.3274
0
VERTEX
8
1
10
6104.4387
20
7789.7173
0
VERTEX
8
1
10
6065.0587
20
7705.2473
0
VERTEX
8
1
10
6025.6487
20
7620.8872
0
VERTEX
8
1
10
5986.1986
20
7536.6469
0
VERTEX
8
1
10
5946.6984
20
7452.5066
0
VERTEX
8
1
10
5907.1383
20
7368.4563
0
VERTEX
8
1
10
5867.5082
20
7284.4761
0
VERTEX
8
1
10
5852.9382
20
7253.6961
0
SEQEND
0
POLYLINE
8
1
62
0
66
1
6
CONTINUOUS
0
VERTEX
8
1
10
5852.9382
20
7253.6961
0
VERTEX
8
1
10
5853.8415
20
7252.6951
0
VERTEX
8
1
10
5856.4938
20
7249.8259
0
VERTEX
8
1
10
5860.8090
20
7245.2894
0
VERTEX
8
1
10
5866.7005
20
7239.2863
0
VERTEX
8
1
10
5874.0823
20
7232.0175
0
VERTEX
8
1
10
5882.8679
20
7223.6839
0
VERTEX
8
1
10
5892.9711
20
7214.4862
0
VERTEX
8
1
10
5904.3055
20
7204.6252
0
VERTEX
8
1
10
5916.7850
20
7194.3019
0
VERTEX
8
1
10
5930.3231
20
7183.7169
0
VERTEX
8
1
10
5944.8335
20
7173.0712
0
VERTEX
8
1
10
5960.2301
20
7162.5655
0
VERTEX
8
1
10
5974.4002
20
7153.6724
0
SEQEND
0
POLYLINE
8
1
62
0
66
1
6
CONTINUOUS
0
VERTEX
8
1
10
5974.4002
20
7153.6724
0
VERTEX
8
1
10
6338.0782
20
8034.0431
0
SEQEND
0
POLYLINE
8
1
62
0
66
1
6
CONTINUOUS
0
VERTEX
8
1
10
6338.0782
20
8034.0431
0
VERTEX
8
1
10
6337.4915
20
8045.9268
0
SEQEND
0
POLYLINE
8
1
62
0
66
1
6
CONTINUOUS
0
VERTEX
8
1
10
6337.4915
20
8045.9268
0
VERTEX
8
1
10
6222.4800
20
8044.0000
0
SEQEND
0
POLYLINE
8
2
62
1
66
1
6
CONTINUOUS
0
VERTEX
8
2
10
5965.8081
20
7159.0648
0
VERTEX
8
2
10
5969.6262
20
7168.3072
0
SEQEND
0
TEXT
8
2
62
1
10
6309.8667
20
8002.4185
40
12.0000
50
247.5547
1
H1/1
0
ENDBLK
5
47
100
AcDbBlockEnd
0
BLOCK
5
48
100
AcDbEntity
8
1
100
AcDbBlockBegin
10
0
20
0
30
0
2
Panel48
70
0
3
Panel48
0
POLYLINE
8
1
62
0
66
1
6
CONTINUOUS
0
VERTEX
8
1
10
6222.4800
20
8044.0000
0
VERTEX
8
1
10
6183.1391
20
7959.0880
0
VERTEX
8
1
10
6154.1862
20
7896.7077
0
SEQEND
0
POLYLINE
8
1
62
0
66
1
6
CONTINUOUS
0
VERTEX
8
1
10
6154.1862
20
7896.7077
0
VERTEX
8
1
10
5965.5928
20
7159.1999
0
SEQEND
0
POLYLINE
8
1
62
0
66
1
6
CONTINUOUS
0
VERTEX
8
1
10
5965.5928
20
7159.1999
0
VERTEX
8
1
10
5976.4265
20
7152.4007
0
VERTEX
8
1
10
5993.3363
20
7142.7776
0
VERTEX
8
1
10
6010.8733
20
7133.8970
0
VERTEX
8
1
10
6028.9512
20
7125.9598
0
VERTEX
8
1
10
6047.4838
20
7119.1667
0
VERTEX
8
1
10
6066.3846
20
7113.7186
0
VERTEX
8
1
10
6085.5674
20
7109.8163
0
VERTEX
8
1
10
6104.9459
20
7107.6606
0
VERTEX
8
1
10
6104.9459
20
7107.6606
0
VERTEX
8
1
10
6107.7038
20
7107.6253
0
SEQEND
0
POLYLINE
8
1
62
0
66
1
6
CONTINUOUS
0
VERTEX
8
1
10
6107.7038
20
7107.6253
0
VERTEX
8
1
10
6339.1343
20
8012.6506
0
SEQEND
0
POLYLINE
8
1
62
0
66
1
6
CONTINUOUS
0
VERTEX
8
1
10
6339.1343
20
8012.6506
0
VERTEX
8
1
10
6337.4915
20
8045.9268
0
SEQEND
0
POLYLINE
8
1
62
0
66
1
6
CONTINUOUS
0
VERTEX
8
1
10
6337.4915
20
8045.9268
0
VERTEX
8
1
10
6222.4800
20
8044.0000
0
SEQEND
0
POLYLINE
8
2
62
1
66
1
6
CONTINUOUS
0
VERTEX
8
2
10
6097.6000
20
7108.4778
0
VERTEX
8
2
10
6100.0774
20
7118.1660
0
SEQEND
0
TEXT
8
2
62
1
10
6315.6610
20
7977.3660
40
12.0000
50
255.6559
1
H1/2
0
ENDBLK
5
48
100
AcDbBlockEnd
0
BLOCK
5
49
100
AcDbEntity
8
1
100
AcDbBlockBegin
10
0
20
0
30
0
2
Panel49
70
0
3
Panel49
0
POLYLINE
8
1
62
0
66
1
6
CONTINUOUS
0
VERTEX
8
1
10
6222.4800
20
8044.0000
0
VERTEX
8
1
10
6186.0834
20
7965.4428
0
SEQEND
0
POLYLINE
8
1
62
0
66
1
6
CONTINUOUS
0
VERTEX
8
1
10
6186.0834
20
7965.4428
0
VERTEX
8
1
10
6097.6000
20
7108.4778
0
SEQEND
0
POLYLINE
8
1
62
0
66
1
6
CONTINUOUS
0
VERTEX
8
1
10
6097.6000
20
7108.4778
0
VERTEX
8
1
10
6104.9459
20
7107.6606
0
VERTEX
8
1
10
6104.9459
20
7107.6606
0
VERTEX
8
1
10
6124.9218
20
7107.4049
0
VERTEX
8
1
10
6144.9015
20
7108.9974
0
VERTEX
8
1
10
6164.7738
20
7112.2398
0
VERTEX
8
1
10
6184.4275
20
7116.9335
0
VERTEX
8
1
10
6203.7515
20
7122.8801
0
VERTEX
8
1
10
6222.6346
20
7129.8812
0
VERTEX
8
1
10
6240.9655
20
7137.7384
0
VERTEX
8
1
10
6252.4507
20
7143.2736
0
SEQEND
0
POLYLINE
8
1
62
0
66
1
6
CONTINUOUS
0
VERTEX
8
1
10
6252.4507
20
7143.2736
0
VERTEX
8
1
10
6340.1310
20
7992.4615
0
SEQEND
0
POLYLINE
8
1
62
0
66
1
6
CONTINUOUS
0
VERTEX
8
1
10
6340.1310
20
7992.4615
0
VERTEX
8
1
10
6337.4915
20
8045.9268
0
SEQEND
0
POLYLINE
8
1
62
0
66
1
6
CONTINUOUS
0
VERTEX
8
1
10
6337.4915
20
8045.9268
0
VERTEX
8
1
10
6222.4800
20
8044.0000
0
SEQEND
0
POLYLINE
8
2
62
1
66
1
6
CONTINUOUS
0
VERTEX
8
2
10
6241.8711
20
7138.1748
0
VERTEX
8
2
10
6242.8981
20
7148.1219
0
SEQEND
0
TEXT
8
2
62
1
10
6322.0968
20
7954.1109
40
12.0000
50
264.1050
1
H1/3
0
ENDBLK
5
49
100
AcDbBlockEnd
0
BLOCK
5
50
100
AcDbEntity
8
1
100
AcDbBlockBegin
10
0
20
0
30
0
2
Panel50
70
0
3
Panel50
0
POLYLINE
8
1
62
0
66
1
6
CONTINUOUS
0
VERTEX
8
1
10
6222.4800
20
8044.0000
0
VERTEX
8
1
10
6195.3080
20
7985.3529
0
SEQEND
0
POLYLINE
8
1
62
0
66
1
6
CONTINUOUS
0
VERTEX
8
1
10
6195.3080
20
7985.3529
0
VERTEX
8
1
10
6241.8711
20
7138.1748
0
SEQEND
0
POLYLINE
8
1
62
0
66
1
6
CONTINUOUS
0
VERTEX
8
1
10
6241.8711
20
7138.1748
0
VERTEX
8
1
10
6258.6331
20
7146.2532
0
VERTEX
8
1
10
6275.5263
20
7155.2272
0
VERTEX
8
1
10
6291.5338
20
7164.4619
0
VERTEX
8
1
10
6306.5444
20
7173.7589
0
VERTEX
8
1
10
6320.4470
20
7182.9198
0
VERTEX
8
1
10
6333.1305
20
7191.7461
0
VERTEX
8
1
10
6344.4835
20
7200.0394
0
VERTEX
8
1
10
6354.3949
20
7207.6012
0
VERTEX
8
1
10
6362.7536
20
7214.2331
0
VERTEX
8
1
10
6369.4483
20
7219.7367
0
VERTEX
8
1
10
6374.3679
20
7223.9136
0
VERTEX
8
1
10
6377.4012
20
7226.5652
0
VERTEX
8
1
10
6378.4370
20
7227.4932
0
SEQEND
0
POLYLINE
8
1
62
0
66
1
6
CONTINUOUS
0
VERTEX
8
1
10
6378.4370
20
7227.4932
0
VERTEX
8
1
10
6375.3481
20
7289.2440
0
VERTEX
8
1
10
6370.5986
20
7383.8275
0
VERTEX
8
1
10
6365.8391
20
7478.4107
0
VERTEX
8
1
10
6361.0896
20
7572.9942
0
VERTEX
8
1
10
6356.3297
20
7667.5874
0
VERTEX
8
1
10
6351.5902
20
7762.1712
0
VERTEX
8
1
10
6346.8607
20
7856.7554
0
VERTEX
8
1
10
6342.1611
20
7951.3406
0
VERTEX
8
1
10
6337.4915
20
8045.9268
0
SEQEND
0
POLYLINE
8
1
62
0
66
1
6
CONTINUOUS
0
VERTEX
8
1
10
6337.4915
20
8045.9268
0
VERTEX
8
1
10
6222.4800
20
8044.0000
0
SEQEND
0
TEXT
8
2
62
1
10
6325.5077
20
8005.2773
40
12.0000
50
272.8641
1
H1/4
0
ENDBLK
5
50
100
AcDbBlockEnd
0
BLOCK
5
51
100
AcDbEntity
8
1
100
AcDbBlockBegin
10
0
20
0
30
0
2
Panel51
70
0
3
Panel51
0
POLYLINE
8
1
62
0
66
1
6
CONTINUOUS
0
VERTEX
8
1
10
6222.4800
20
8044.0000
0
VERTEX
8
1
10
6183.1395
20
7959.0790
0
VERTEX
8
1
10
6143.7995
20
7874.3189
0
VERTEX
8
1
10
6104.4395
20
7789.7089
0
VERTEX
8
1
10
6065.0594
20
7705.2386
0
VERTEX
8
1
10
6025.6491
20
7620.8781
0
VERTEX
8
1
10
6022.9491
20
7615.1180
0
SEQEND
0
POLYLINE
8
1
62
0
66
1
6
CONTINUOUS
0
VERTEX
8
1
10
6022.9491
20
7615.1180
0
VERTEX
8
1
10
6023.6915
20
7614.4351
0
VERTEX
8
1
10
6025.8668
20
7612.4860
0
VERTEX
8
1
10
6029.3969
20
7609.4203
0
VERTEX
8
1
10
6034.2038
20
7605.3873
0
VERTEX
8
1
10
6040.2095
20
7600.5366
0
VERTEX
8
1
10
6047.3358
20
7595.0177
0
VERTEX
8
1
10
6055.5048
20
7588.9800
0
VERTEX
8
1
10
6064.6385
20
7582.5731
0
VERTEX
8
1
10
6074.6588
20
7575.9464
0
VERTEX
8
1
10
6085.4876
20
7569.2494
0
VERTEX
8
1
10
6097.0470
20
7562.6316
0
VERTEX
8
1
10
6109.2589
20
7556.2425
0
VERTEX
8
1
10
6122.0452
20
7550.2315
0
VERTEX
8
1
10
6135.3280
20
7544.7482
0
VERTEX
8
1
10
6149.0292
20
7539.9421
0
VERTEX
8
1
10
6163.0707
20
7535.9626
0
VERTEX
8
1
10
6177.3746
20
7532.9592
0
VERTEX
8
1
10
6191.8627
20
7531.0813
0
VERTEX
8
1
10
6206.4572
20
7530.4786
0
VERTEX
8
1
10
6221.0798
20
7531.3004
0
VERTEX
8
1
10
6231.5095
20
7532.8217
0
VERTEX
8
1
10
6241.8640
20
7535.0621
0
VERTEX
8
1
10
6252.0937
20
7537.9354
0
VERTEX
8
1
10
6262.1487
20
7541.3554
0
VERTEX
8
1
10
6271.9795
20
7545.2360
0
VERTEX
8
1
10
6281.5362
20
7549.4909
0
VERTEX
8
1
10
6290.7692
20
7554.0340
0
VERTEX
8
1
10
6299.6288
20
7558.7790
0
VERTEX
8
1
10
6308.0652
20
7563.6397
0
VERTEX
8
1
10
6316.0288
20
7568.5300
0
VERTEX
8
1
10
6323.4699
20
7573.3637
0
VERTEX
8
1
10
6330.3387
20
7578.0545
0
VERTEX
8
1
10
6336.5856
20
7582.5163
0
VERTEX
8
1
10
6342.1609
20
7586.6628
0
VERTEX
8
1
10
6347.0147
20
7590.4079
0
VERTEX
8
1
10
6351.0976
20
7593.6654
0
VERTEX
8
1
10
6354.3596
20
7596.3490
0
VERTEX
8
1
10
6356.7512
20
7598.3726
0
VERTEX
8
1
10
6358.2226
20
7599.6499
0
VERTEX
8
1
10
6358.7241
20
7600.0949
0
SEQEND
0
POLYLINE
8
1
62
0
66
1
6
CONTINUOUS
0
VERTEX
8
1
10
6358.7241
20
7600.0949
0
VERTEX
8
1
10
6355.4835
20
7667.5462
0
VERTEX
8
1
10
6350.9555
20
7762.1404
0
VERTEX
8
1
10
6346.4375
20
7856.7350
0
VERTEX
8
1
10
6341.9495
20
7951.3304
0
VERTEX
8
1
10
6337.4915
20
8045.9268
0
SEQEND
0
POLYLINE
8
1
62
0
66
1
6
CONTINUOUS
0
VERTEX
8
1
10
6337.4915
20
8045.9268
0
VERTEX
8
1
10
6222.4800
20
8044.0000
0
SEQEND
0
TEXT
8
2
62
1
10
6324.4588
20
8025.2835
40
12.0000
50
-87.2734
1
H2
0
ENDBLK
5
51
100
AcDbBlockEnd
0
BLOCK
5
52
100
AcDbEntity
8
1
100
AcDbBlockBegin
10
0
20
0
30
0
2
Panel52
70
0
3
Panel52
0
POLYLINE
8
1
62
0
66
1
6
CONTINUOUS
0
VERTEX
8
1
10
6222.4800
20
8044.0000
0
VERTEX
8
1
10
6183.1397
20
7959.0793
0
VERTEX
8
1
10
6143.7996
20
7874.3192
0
VERTEX
8
1
10
6104.4396
20
7789.7092
0
VERTEX
8
1
10
6065.0594
20
7705.2388
0
VERTEX
8
1
10
6052.2993
20
7677.9286
0
SEQEND
0
POLYLINE
8
1
62
0
66
1
6
CONTINUOUS
0
VERTEX
8
1
10
6052.2993
20
7677.9286
0
VERTEX
8
1
10
6052.8414
20
7677.4656
0
VERTEX
8
1
10
6054.4320
20
7676.1391
0
VERTEX
8
1
10
6057.0180
20
7674.0425
0
VERTEX
8
1
10
6060.5460
20
7671.2692
0
VERTEX
8
1
10
6064.9629
20
7667.9127
0
VERTEX
8
1
10
6070.2153
20
7664.0665
0
VERTEX
8
1
10
6076.2502
20
7659.8239
0
VERTEX
8
1
10
6083.0141
20
7655.2784
0
VERTEX
8
1
10
6090.4538
20
7650.5236
0
VERTEX
8
1
10
6098.5162
20
7645.6527
0
VERTEX
8
1
10
6107.1478
20
7640.7594
0
VERTEX
8
1
10
6116.2956
20
7635.9370
0
VERTEX
8
1
10
6125.9063
20
7631.2790
0
VERTEX
8
1
10
6135.9266
20
7626.8788
0
VERTEX
8
1
10
6146.3032
20
7622.8299
0
VERTEX
8
1
10
6156.9829
20
7619.2257
0
VERTEX
8
1
10
6167.9125
20
7616.1597
0
VERTEX
8
1
10
6179.0387
20
7613.7254
0
VERTEX
8
1
10
6190.3082
20
7612.0161
0
VERTEX
8
1
10
6201.6679
20
7611.1254
0
VERTEX
8
1
10
6213.0130
20
7611.1144
0
VERTEX
8
1
10
6224.3344
20
7611.9192
0
VERTEX
8
1
10
6235.5715
20
7613.4517
0
VERTEX
8
1
10
6246.6643
20
7615.6236
0
VERTEX
8
1
10
6257.5522
20
7618.3470
0
VERTEX
8
1
10
6268.1749
20
7621.5335
0
VERTEX
8
1
10
6278.4722
20
7625.0951
0
VERTEX
8
1
10
6288.3836
20
7628.9436
0
VERTEX
8
1
10
6297.8489
20
7632.9908
0
VERTEX
8
1
10
6306.8077
20
7637.1485
0
VERTEX
8
1
10
6315.1996
20
7641.3287
0
VERTEX
8
1
10
6322.9643
20
7645.4432
0
VERTEX
8
1
10
6330.0415
20
7649.4037
0
VERTEX
8
1
10
6336.3709
20
7653.1222
0
VERTEX
8
1
10
6341.8920
20
7656.5105
0
VERTEX
8
1
10
6346.5447
20
7659.4804
0
VERTEX
8
1
10
6350.2684
20
7661.9438
0
VERTEX
8
1
10
6353.0029
20
7663.8125
0
VERTEX
8
1
10
6354.6879
20
7664.9984
0
VERTEX
8
1
10
6355.2629
20
7665.4133
0
SEQEND
0
POLYLINE
8
1
62
0
66
1
6
CONTINUOUS
0
VERTEX
8
1
10
6355.2629
20
7665.4133
0
VERTEX
8
1
10
6350.7187
20
7762.1293
0
VERTEX
8
1
10
6346.2797
20
7856.7276
0
VERTEX
8
1
10
6341.8706
20
7951.3267
0
VERTEX
8
1
10
6337.4915
20
8045.9268
0
SEQEND
0
POLYLINE
8
1
62
0
66
1
6
CONTINUOUS
0
VERTEX
8
1
10
6337.4915
20
8045.9268
0
VERTEX
8
1
10
6222.4800
20
8044.0000
0
SEQEND
0
TEXT
8
2
62
1
10
6324.4398
20
8025.2955
40
12.0000
50
-87.3260
1
H3
0
ENDBLK
5
52
100
AcDbBlockEnd
0
BLOCK
5
53
100
AcDbEntity
8
1
100
AcDbBlockBegin
10
0
20
0
30
0
2
Panel53
70
0
3
Panel53
0
POLYLINE
8
1
62
0
66
1
6
CONTINUOUS
0
VERTEX
8
1
10
6222.4800
20
8044.0000
0
VERTEX
8
1
10
6183.1398
20
7959.0795
0
VERTEX
8
1
10
6143.7998
20
7874.3195
0
VERTEX
8
1
10
6104.4397
20
7789.7094
0
VERTEX
8
1
10
6082.2695
20
7742.1590
0
SEQEND
0
POLYLINE
8
1
62
0
66
1
6
CONTINUOUS
0
VERTEX
8
1
10
6082.2695
20
7742.1590
0
VERTEX
8
1
10
6082.7352
20
7741.7709
0
VERTEX
8
1
10
6084.1020
20
7740.6580
0
VERTEX
8
1
10
6086.3242
20
7738.8977
0
VERTEX
8
1
10
6089.3563
20
7736.5674
0
VERTEX
8
1
10
6093.1528
20
7733.7443
0
VERTEX
8
1
10
6097.6681
20
7730.5060
0
VERTEX
8
1
10
6102.8566
20
7726.9296
0
VERTEX
8
1
10
6108.6729
20
7723.0926
0
VERTEX
8
1
10
6115.0712
20
7719.0723
0
VERTEX
8
1
10
6122.0062
20
7714.9460
0
VERTEX
8
1
10
6129.4321
20
7710.7911
0
VERTEX
8
1
10
6137.3035
20
7706.6850
0
VERTEX
8
1
10
6145.5748
20
7702.7049
0
VERTEX
8
1
10
6154.2005
20
7698.9283
0
VERTEX
8
1
10
6163.1349
20
7695.4325
0
VERTEX
8
1
10
6172.3325
20
7692.2948
0
VERTEX
8
1
10
6181.7479
20
7689.5926
0
VERTEX
8
1
10
6191.3353
20
7687.4032
0
VERTEX
8
1
10
6201.0493
20
7685.8040
0
VERTEX
8
1
10
6210.8443
20
7684.8723
0
VERTEX
8
1
10
6221.2270
20
7684.6702
0
VERTEX
8
1
10
6231.5934
20
7685.2189
0
VERTEX
8
1
10
6241.8877
20
7686.4384
0
VERTEX
8
1
10
6252.0541
20
7688.2487
0
VERTEX
8
1
10
6262.0368
20
7690.5696
0
VERTEX
8
1
10
6271.7800
20
7693.3211
0
VERTEX
8
1
10
6281.2278
20
7696.4232
0
VERTEX
8
1
10
6290.3244
20
7699.7956
0
VERTEX
8
1
10
6299.0141
20
7703.3585
0
VERTEX
8
1
10
6307.2409
20
7707.0316
0
VERTEX
8
1
10
6314.9491
20
7710.7349
0
VERTEX
8
1
10
6322.0830
20
7714.3884
0
VERTEX
8
1
10
6328.5865
20
7717.9119
0
VERTEX
8
1
10
6334.4041
20
7721.2254
0
VERTEX
8
1
10
6339.4797
20
7724.2489
0
VERTEX
8
1
10
6343.7577
20
7726.9022
0
VERTEX
8
1
10
6347.1821
20
7729.1052
0
VERTEX
8
1
10
6349.6973
20
7730.7780
0
VERTEX
8
1
10
6351.2473
20
7731.8403
0
VERTEX
8
1
10
6351.7764
20
7732.2123
0
SEQEND
0
POLYLINE
8
1
62
0
66
1
6
CONTINUOUS
0
VERTEX
8
1
10
6351.7764
20
7732.2123
0
VERTEX
8
1
10
6350.4004
20
7762.1146
0
VERTEX
8
1
10
6346.0675
20
7856.7178
0
VERTEX
8
1
10
6341.7645
20
7951.3219
0
VERTEX
8
1
10
6337.4915
20
8045.9268
0
SEQEND
0
POLYLINE
8
1
62
0
66
1
6
CONTINUOUS
0
VERTEX
8
1
10
6337.4915
20
8045.9268
0
VERTEX
8
1
10
6222.4800
20
8044.0000
0
SEQEND
0
TEXT
8
2
62
1
10
6324.4158
20
8025.3107
40
12.0000
50
-87.3929
1
H4
0
ENDBLK
5
53
100
AcDbBlockEnd
0
BLOCK
5
54
100
AcDbEntity
8
1
100
AcDbBlockBegin
10
0
20
0
30
0
2
Panel54
70
0
3
Panel54
0
POLYLINE
8
1
62
0
66
1
6
CONTINUOUS
0
VERTEX
8
1
10
3164.9600
20
82.9400
0
VERTEX
8
1
10
3209.3806
20
80.6900
0
VERTEX
8
1
10
3299.7408
20
76.1800
0
VERTEX
8
1
10
3392.1908
20
71.6800
0
VERTEX
8
1
10
3486.8010
20
67.1900
0
VERTEX
8
1
10
3583.6311
20
62.7299
0
VERTEX
8
1
10
3682.7511
20
58.3099
0
VERTEX
8
1
10
3699.8111
20
57.5699
0
SEQEND
0
POLYLINE
8
1
62
0
66
1
6
CONTINUOUS
0
VERTEX
8
1
10
3699.8111
20
57.5699
0
VERTEX
8
1
10
3700.6624
20
59.0585
0
VERTEX
8
1
10
3703.1069
20
63.3972
0
VERTEX
8
1
10
3706.9808
20
70.3950
0
VERTEX
8
1
10
3712.1204
20
79.8614
0
VERTEX
8
1
10
3718.3620
20
91.6056
0
VERTEX
8
1
10
3725.5416
20
105.4368
0
VERTEX
8
1
10
3733.4956
20
121.1643
0
VERTEX
8
1
10
3742.0601
20
138.5972
0
VERTEX
8
1
10
3751.0714
20
157.5450
0
VERTEX
8
1
10
3760.3656
20
177.8168
0
VERTEX
8
1
10
3769.7790
20
199.2218
0
VERTEX
8
1
10
3779.1479
20
221.5694
0
VERTEX
8
1
10
3781.8325
20
228.3390
0
SEQEND
0
POLYLINE
8
1
62
0
66
1
6
CONTINUOUS
0
VERTEX
8
1
10
3781.8325
20
228.3390
0
VERTEX
8
1
10
3196.6968
20
178.6766
0
SEQEND
0
POLYLINE
8
1
62
0
66
1
6
CONTINUOUS
0
VERTEX
8
1
10
3196.6968
20
178.6766
0
VERTEX
8
1
10
3194.6136
20
172.3714
0
VERTEX
8
1
10
3164.9600
20
82.9400
0
SEQEND
0
POLYLINE
8
2
62
1
66
1
6
CONTINUOUS
0
VERTEX
8
2
10
3777.6290
20
217.9463
0
VERTEX
8
2
10
3767.6648
20
217.1006
0
SEQEND
0
TEXT
8
2
62
1
10
3222.7912
20
166.8410
40
12.0000
50
4.8513
1
C1/1
0
ENDBLK
5
54
100
AcDbBlockEnd
0
BLOCK
5
55
100
AcDbEntity
8
1
100
AcDbBlockBegin
10
0
20
0
30
0
2
Panel55
70
0
3
Panel55
0
POLYLINE
8
1
62
0
66
1
6
CONTINUOUS
0
VERTEX
8
1
10
3164.9600
20
82.9400
0
VERTEX
8
1
10
3209.3806
20
80.6900
0
VERTEX
8
1
10
3299.7408
20
76.1800
0
VERTEX
8
1
10
3365.3010
20
72.9888
0
SEQEND
0
POLYLINE
8
1
62
0
66
1
6
CONTINUOUS
0
VERTEX
8
1
10
3365.3010
20
72.9888
0
VERTEX
8
1
10
3777.6290
20
217.9463
0
SEQEND
0
POLYLINE
8
1
62
0
66
1
6
CONTINUOUS
0
VERTEX
8
1
10
3777.6290
20
217.9463
0
VERTEX
8
1
10
3779.1479
20
221.5694
0
VERTEX
8
1
10
3788.3083
20
244.6687
0
VERTEX
8
1
10
3797.0965
20
268.3290
0
VERTEX
8
1
10
3805.3488
20
292.3596
0
VERTEX
8
1
10
3812.9014
20
316.5697
0
VERTEX
8
1
10
3819.5904
20
340.7686
0
VERTEX
8
1
10
3825.2521
20
364.7655
0
VERTEX
8
1
10
3829.7227
20
388.3697
0
VERTEX
8
1
10
3832.6933
20
410.3183
0
SEQEND
0
POLYLINE
8
1
62
0
66
1
6
CONTINUOUS
0
VERTEX
8
1
10
3832.6933
20
410.3183
0
VERTEX
8
1
10
3199.7066
20
187.7862
0
SEQEND
0
POLYLINE
8
1
62
0
66
1
6
CONTINUOUS
0
VERTEX
8
1
10
3199.7066
20
187.7862
0
VERTEX
8
1
10
3194.6136
20
172.3714
0
VERTEX
8
1
10
3164.9600
20
82.9400
0
SEQEND
0
POLYLINE
8
2
62
1
66
1
6
CONTINUOUS
0
VERTEX
8
2
10
3831.1870
20
399.1887
0
VERTEX
8
2
10
3821.7530
20
395.8721
0
SEQEND
0
TEXT
8
2
62
1
10
3227.9349
20
182.8702
40
12.0000
50
19.3696
1
C1/2
0
ENDBLK
5
55
100
AcDbBlockEnd
0
BLOCK
5
56
100
AcDbEntity
8
1
100
AcDbBlockBegin
10
0
20
0
30
0
2
Panel56
70
0
3
Panel56
0
POLYLINE
8
1
62
0
66
1
6
CONTINUOUS
0
VERTEX
8
1
10
3164.9600
20
82.9400
0
VERTEX
8
1
10
3209.3806
20
80.6900
0
VERTEX
8
1
10
3299.7408
20
76.1800
0
VERTEX
8
1
10
3307.3021
20
75.8119
0
SEQEND
0
POLYLINE
8
1
62
0
66
1
6
CONTINUOUS
0
VERTEX
8
1
10
3307.3021
20
75.8119
0
VERTEX
8
1
10
3831.1870
20
399.1887
0
SEQEND
0
POLYLINE
8
1
62
0
66
1
6
CONTINUOUS
0
VERTEX
8
1
10
3831.1870
20
399.1887
0
VERTEX
8
1
10
3832.8384
20
411.3904
0
VERTEX
8
1
10
3832.8384
20
411.3904
0
VERTEX
8
1
10
3834.1686
20
427.6457
0
VERTEX
8
1
10
3834.6949
20
443.4886
0
VERTEX
8
1
10
3834.4147
20
458.9151
0
VERTEX
8
1
10
3833.3249
20
473.9211
0
VERTEX
8
1
10
3831.4230
20
488.5026
0
VERTEX
8
1
10
3828.7059
20
502.6555
0
VERTEX
8
1
10
3825.1709
20
516.3757
0
VERTEX
8
1
10
3820.8151
20
529.6592
0
VERTEX
8
1
10
3815.6358
20
542.5020
0
VERTEX
8
1
10
3809.6300
20
554.9000
0
VERTEX
8
1
10
3802.7950
20
566.8491
0
VERTEX
8
1
10
3799.6647
20
571.5428
0
SEQEND
0
POLYLINE
8
1
62
0
66
1
6
CONTINUOUS
0
VERTEX
8
1
10
3799.6647
20
571.5428
0
VERTEX
8
1
10
3205.2776
20
204.6474
0
SEQEND
0
POLYLINE
8
1
62
0
66
1
6
CONTINUOUS
0
VERTEX
8
1
10
3205.2776
20
204.6474
0
VERTEX
8
1
10
3194.6136
20
172.3714
0
VERTEX
8
1
10
3164.9600
20
82.9400
0
SEQEND
0
POLYLINE
8
2
62
1
66
1
6
CONTINUOUS
0
VERTEX
8
2
10
3804.9619
20
563.0609
0
VERTEX
8
2
10
3796.4524
20
557.8084
0
SEQEND
0
TEXT
8
2
62
1
10
3233.9048
20
205.8657
40
12.0000
50
31.6857
1
C1/3
0
ENDBLK
5
56
100
AcDbBlockEnd
0
BLOCK
5
57
100
AcDbEntity
8
1
100
AcDbBlockBegin
10
0
20
0
30
0
2
Panel57
70
0
3
Panel57
0
POLYLINE
8
1
62
0
66
1
6
CONTINUOUS
0
VERTEX
8
1
10
3164.9600
20
82.9400
0
VERTEX
8
1
10
3209.3806
20
80.6900
0
VERTEX
8
1
10
3285.3042
20
76.9005
0
SEQEND
0
POLYLINE
8
1
62
0
66
1
6
CONTINUOUS
0
VERTEX
8
1
10
3285.3042
20
76.9005
0
VERTEX
8
1
10
3804.9619
20
563.0609
0
SEQEND
0
POLYLINE
8
1
62
0
66
1
6
CONTINUOUS
0
VERTEX
8
1
10
3804.9619
20
563.0609
0
VERTEX
8
1
10
3802.7950
20
566.8491
0
VERTEX
8
1
10
3795.1279
20
578.3453
0
VERTEX
8
1
10
3786.6259
20
589.3846
0
VERTEX
8
1
10
3777.2862
20
599.9629
0
VERTEX
8
1
10
3767.1059
20
610.0761
0
VERTEX
8
1
10
3756.0822
20
619.7202
0
VERTEX
8
1
10
3744.2123
20
628.8911
0
VERTEX
8
1
10
3731.4933
20
637.5848
0
VERTEX
8
1
10
3717.9225
20
645.7973
0
VERTEX
8
1
10
3703.4970
20
653.5244
0
VERTEX
8
1
10
3703.4970
20
653.5244
0
VERTEX
8
1
10
3684.7463
20
662.3060
0
VERTEX
8
1
10
3675.9606
20
665.8885
0
SEQEND
0
POLYLINE
8
1
62
0
66
1
6
CONTINUOUS
0
VERTEX
8
1
10
3675.9606
20
665.8885
0
VERTEX
8
1
10
3215.2716
20
234.8955
0
SEQEND
0
POLYLINE
8
1
62
0
66
1
6
CONTINUOUS
0
VERTEX
8
1
10
3215.2716
20
234.8955
0
VERTEX
8
1
10
3194.6136
20
172.3714
0
VERTEX
8
1
10
3164.9600
20
82.9400
0
SEQEND
0
POLYLINE
8
2
62
1
66
1
6
CONTINUOUS
0
VERTEX
8
2
10
3686.0941
20
661.6748
0
VERTEX
8
2
10
3678.7916
20
654.8430
0
SEQEND
0
TEXT
8
2
62
1
10
3243.0924
20
241.7515
40
12.0000
50
43.0926
1
C1/4
0
ENDBLK
5
57
100
AcDbBlockEnd
0
BLOCK
5
58
100
AcDbEntity
8
1
100
AcDbBlockBegin
10
0
20
0
30
0
2
Panel58
70
0
3
Panel58
0
POLYLINE
8
1
62
0
66
1
6
CONTINUOUS
0
VERTEX
8
1
10
3164.9600
20
82.9400
0
VERTEX
8
1
10
3209.3806
20
80.6900
0
VERTEX
8
1
10
3274.9979
20
77.4149
0
SEQEND
0
POLYLINE
8
1
62
0
66
1
6
CONTINUOUS
0
VERTEX
8
1
10
3274.9979
20
77.4149
0
VERTEX
8
1
10
3686.0941
20
661.6748
0
SEQEND
0
POLYLINE
8
1
62
0
66
1
6
CONTINUOUS
0
VERTEX
8
1
10
3686.0941
20
661.6748
0
VERTEX
8
1
10
3684.7463
20
662.3060
0
VERTEX
8
1
10
3664.9344
20
670.3845
0
VERTEX
8
1
10
3644.2801
20
677.7872
0
VERTEX
8
1
10
3623.0020
20
684.5415
0
VERTEX
8
1
10
3601.3189
20
690.6747
0
VERTEX
8
1
10
3579.4494
20
696.2141
0
VERTEX
8
1
10
3557.6124
20
701.1871
0
VERTEX
8
1
10
3536.0266
20
705.6210
0
VERTEX
8
1
10
3519.5881
20
708.6743
0
SEQEND
0
POLYLINE
8
1
62
0
66
1
6
CONTINUOUS
0
VERTEX
8
1
10
3519.5881
20
708.6743
0
VERTEX
8
1
10
3240.8840
20
312.5732
0
SEQEND
0
POLYLINE
8
1
62
0
66
1
6
CONTINUOUS
0
VERTEX
8
1
10
3240.8840
20
312.5732
0
VERTEX
8
1
10
3224.1158
20
261.6636
0
VERTEX
8
1
10
3194.6136
20
172.3714
0
VERTEX
8
1
10
3164.9600
20
82.9400
0
SEQEND
0
POLYLINE
8
2
62
1
66
1
6
CONTINUOUS
0
VERTEX
8
2
10
3530.4021
20
706.6657
0
VERTEX
8
2
10
3524.6476
20
698.4873
0
SEQEND
0
TEXT
8
2
62
1
10
3266.7199
20
324.9630
40
12.0000
50
54.8691
1
C1/5
0
ENDBLK
5
58
100
AcDbBlockEnd
0
BLOCK
5
59
100
AcDbEntity
8
1
100
AcDbBlockBegin
10
0
20
0
30
0
2
Panel59
70
0
3
Panel59
0
POLYLINE
8
1
62
0
66
1
6
CONTINUOUS
0
VERTEX
8
1
10
3164.9600
20
82.9400
0
VERTEX
8
1
10
3209.3806
20
80.6900
0
VERTEX
8
1
10
3270.5892
20
77.6350
0
SEQEND
0
POLYLINE
8
1
62
0
66
1
6
CONTINUOUS
0
VERTEX
8
1
10
3270.5892
20
77.6350
0
VERTEX
8
1
10
3530.4021
20
706.6657
0
SEQEND
0
POLYLINE
8
1
62
0
66
1
6
CONTINUOUS
0
VERTEX
8
1
10
3530.4021
20
706.6657
0
VERTEX
8
1
10
3514.9107
20
709.5431
0
VERTEX
8
1
10
3494.4834
20
712.9807
0
VERTEX
8
1
10
3474.9634
20
715.9613
0
VERTEX
8
1
10
3456.5696
20
718.5121
0
VERTEX
8
1
10
3439.5205
20
720.6604
0
VERTEX
8
1
10
3424.0350
20
722.4336
0
VERTEX
8
1
10
3410.3318
20
723.8590
0
VERTEX
8
1
10
3398.6296
20
724.9640
0
VERTEX
8
1
10
3389.1471
20
725.7758
0
VERTEX
8
1
10
3382.1031
20
726.3219
0
VERTEX
8
1
10
3377.7163
20
726.6294
0
VERTEX
8
1
10
3376.2055
20
726.7259
0
SEQEND
0
POLYLINE
8
1
62
0
66
1
6
CONTINUOUS
0
VERTEX
8
1
10
3376.2055
20
726.7259
0
VERTEX
8
1
10
3369.7350
20
706.7600
0
VERTEX
8
1
10
3340.8460
20
617.8622
0
VERTEX
8
1
10
3311.8469
20
528.9258
0
VERTEX
8
1
10
3282.7272
20
439.9207
0
VERTEX
8
1
10
3253.4869
20
350.8366
0
VERTEX
8
1
10
3224.1158
20
261.6636
0
VERTEX
8
1
10
3194.6136
20
172.3714
0
VERTEX
8
1
10
3164.9600
20
82.9400
0
SEQEND
0
TEXT
8
2
62
1
10
3186.0566
20
102.3291
40
12.0000
50
71.8338
1
C1/6
0
ENDBLK
5
59
100
AcDbBlockEnd
0
BLOCK
5
60
100
AcDbEntity
8
1
100
AcDbBlockBegin
10
0
20
0
30
0
2
Panel60
70
0
3
Panel60
0
POLYLINE
8
1
62
0
66
1
6
CONTINUOUS
0
VERTEX
8
1
10
3164.9600
20
82.9400
0
VERTEX
8
1
10
3209.3804
20
80.6900
0
VERTEX
8
1
10
3299.7405
20
76.1800
0
VERTEX
8
1
10
3392.1906
20
71.6800
0
VERTEX
8
1
10
3486.8009
20
67.1900
0
VERTEX
8
1
10
3491.0109
20
67.0000
0
SEQEND
0
POLYLINE
8
1
62
0
66
1
6
CONTINUOUS
0
VERTEX
8
1
10
3491.0109
20
67.0000
0
VERTEX
8
1
10
3491.4543
20
67.7711
0
VERTEX
8
1
10
3492.7271
20
70.0179
0
VERTEX
8
1
10
3494.7430
20
73.6403
0
VERTEX
8
1
10
3497.4158
20
78.5384
0
VERTEX
8
1
10
3500.6591
20
84.6122
0
VERTEX
8
1
10
3504.3867
20
91.7618
0
VERTEX
8
1
10
3508.5124
20
99.8871
0
VERTEX
8
1
10
3512.9498
20
108.8883
0
VERTEX
8
1
10
3517.6128
20
118.6653
0
VERTEX
8
1
10
3522.4151
20
129.1182
0
VERTEX
8
1
10
3527.2703
20
140.1470
0
VERTEX
8
1
10
3532.0923
20
151.6517
0
VERTEX
8
1
10
3536.7947
20
163.5324
0
VERTEX
8
1
10
3541.2914
20
175.6890
0
VERTEX
8
1
10
3545.4960
20
188.0217
0
VERTEX
8
1
10
3549.3222
20
200.4305
0
VERTEX
8
1
10
3552.6839
20
212.8153
0
VERTEX
8
1
10
3555.4948
20
225.0763
0
VERTEX
8
1
10
3557.6685
20
237.1134
0
VERTEX
8
1
10
3559.1189
20
248.8267
0
VERTEX
8
1
10
3559.6755
20
257.0794
0
VERTEX
8
1
10
3559.8076
20
265.1098
0
VERTEX
8
1
10
3559.5175
20
272.9191
0
VERTEX
8
1
10
3558.8075
20
280.5084
0
VERTEX
8
1
10
3557.6801
20
287.8790
0
VERTEX
8
1
10
3556.1377
20
295.0320
0
VERTEX
8
1
10
3554.1826
20
301.9686
0
VERTEX
8
1
10
3551.8172
20
308.6899
0
VERTEX
8
1
10
3549.0439
20
315.1972
0
VERTEX
8
1
10
3545.8651
20
321.4916
0
VERTEX
8
1
10
3542.2831
20
327.5743
0
VERTEX
8
1
10
3538.3004
20
333.4465
0
VERTEX
8
1
10
3533.9193
20
339.1094
0
VERTEX
8
1
10
3529.1423
20
344.5641
0
VERTEX
8
1
10
3523.9716
20
349.8118
0
VERTEX
8
1
10
3518.4097
20
354.8537
0
VERTEX
8
1
10
3512.4589
20
359.6910
0
VERTEX
8
1
10
3506.1217
20
364.3249
0
VERTEX
8
1
10
3499.4004
20
368.7565
0
VERTEX
8
1
10
3492.2974
20
372.9871
0
VERTEX
8
1
10
3480.4553
20
379.2037
0
VERTEX
8
1
10
3467.8355
20
384.9482
0
VERTEX
8
1
10
3454.5879
20
390.2372
0
VERTEX
8
1
10
3440.8622
20
395.0871
0
VERTEX
8
1
10
3426.8082
20
399.5147
0
VERTEX
8
1
10
3412.5755
20
403.5364
0
VERTEX
8
1
10
3398.3140
20
407.1689
0
VERTEX
8
1
10
3384.1735
20
410.4287
0
VERTEX
8
1
10
3370.3035
20
413.3325
0
VERTEX
8
1
10
3356.8540
20
415.8968
0
VERTEX
8
1
10
3343.9747
20
418.1381
0
VERTEX
8
1
10
3331.8153
20
420.0732
0
VERTEX
8
1
10
3320.5255
20
421.7185
0
VERTEX
8
1
10
3310.2552
20
423.0906
0
VERTEX
8
1
10
3301.1541
20
424.2061
0
VERTEX
8
1
10
3293.3719
20
425.0816
0
VERTEX
8
1
10
3287.0584
20
425.7337
0
VERTEX
8
1
10
3282.3634
20
426.1790
0
VERTEX
8
1
10
3279.4365
20
426.4339
0
VERTEX
8
1
10
3278.4277
20
426.5153
0
SEQEND
0
POLYLINE
8
1
62
0
66
1
6
CONTINUOUS
0
VERTEX
8
1
10
3278.4277
20
426.5153
0
VERTEX
8
1
10
3253.5605
20
350.8110
0
VERTEX
8
1
10
3224.1648
20
261.6461
0
VERTEX
8
1
10
3194.6380
20
172.3625
0
VERTEX
8
1
10
3164.9600
20
82.9400
0
SEQEND
0
TEXT
8
2
62
1
10
3205.0099
20
82.9844
40
12.0000
50
-2.7989
1
C2
0
ENDBLK
5
60
100
AcDbBlockEnd
0
BLOCK
5
61
100
AcDbEntity
8
1
100
AcDbBlockBegin
10
0
20
0
30
0
2
Panel61
70
0
3
Panel61
0
POLYLINE
8
1
62
0
66
1
6
CONTINUOUS
0
VERTEX
8
1
10
3164.9600
20
82.9400
0
VERTEX
8
1
10
3209.3804
20
80.6900
0
VERTEX
8
1
10
3299.7405
20
76.1800
0
VERTEX
8
1
10
3392.1906
20
71.6800
0
VERTEX
8
1
10
3450.3608
20
68.9200
0
SEQEND
0
POLYLINE
8
1
62
0
66
1
6
CONTINUOUS
0
VERTEX
8
1
10
3450.3608
20
68.9200
0
VERTEX
8
1
10
3450.7479
20
69.5940
0
VERTEX
8
1
10
3451.8589
20
71.5578
0
VERTEX
8
1
10
3453.6185
20
74.7240
0
VERTEX
8
1
10
3455.9515
20
79.0052
0
VERTEX
8
1
10
3458.7824
20
84.3141
0
VERTEX
8
1
10
3462.0360
20
90.5632
0
VERTEX
8
1
10
3465.6369
20
97.6652
0
VERTEX
8
1
10
3469.5098
20
105.5327
0
VERTEX
8
1
10
3473.5794
20
114.0783
0
VERTEX
8
1
10
3477.7703
20
123.2145
0
VERTEX
8
1
10
3482.0073
20
132.8542
0
VERTEX
8
1
10
3486.2149
20
142.9098
0
VERTEX
8
1
10
3490.3180
20
153.2939
0
VERTEX
8
1
10
3494.2411
20
163.9192
0
VERTEX
8
1
10
3497.9090
20
174.6984
0
VERTEX
8
1
10
3501.2463
20
185.5439
0
VERTEX
8
1
10
3504.1776
20
196.3685
0
VERTEX
8
1
10
3506.6277
20
207.0847
0
VERTEX
8
1
10
3508.5213
20
217.6052
0
VERTEX
8
1
10
3509.7830
20
227.8426
0
VERTEX
8
1
10
3510.2655
20
235.0560
0
VERTEX
8
1
10
3510.3770
20
242.0750
0
VERTEX
8
1
10
3510.1197
20
248.9006
0
VERTEX
8
1
10
3509.4956
20
255.5337
0
VERTEX
8
1
10
3508.5069
20
261.9755
0
VERTEX
8
1
10
3507.1556
20
268.2269
0
VERTEX
8
1
10
3505.4438
20
274.2889
0
VERTEX
8
1
10
3503.3736
20
280.1626
0
VERTEX
8
1
10
3500.9471
20
285.8489
0
VERTEX
8
1
10
3498.1664
20
291.3488
0
VERTEX
8
1
10
3495.0335
20
296.6634
0
VERTEX
8
1
10
3491.5505
20
301.7937
0
VERTEX
8
1
10
3487.7195
20
306.7406
0
VERTEX
8
1
10
3483.5427
20
311.5051
0
VERTEX
8
1
10
3479.0221
20
316.0884
0
VERTEX
8
1
10
3474.1597
20
320.4913
0
VERTEX
8
1
10
3468.9577
20
324.7149
0
VERTEX
8
1
10
3463.4181
20
328.7602
0
VERTEX
8
1
10
3457.5431
20
332.6282
0
VERTEX
8
1
10
3451.3347
20
336.3199
0
VERTEX
8
1
10
3440.9693
20
341.7506
0
VERTEX
8
1
10
3429.9228
20
346.7662
0
VERTEX
8
1
10
3418.3263
20
351.3815
0
VERTEX
8
1
10
3406.3109
20
355.6114
0
VERTEX
8
1
10
3394.0078
20
359.4706
0
VERTEX
8
1
10
3381.5481
20
362.9738
0
VERTEX
8
1
10
3369.0629
20
366.1359
0
VERTEX
8
1
10
3356.6834
20
368.9715
0
VERTEX
8
1
10
3344.5407
20
371.4954
0
VERTEX
8
1
10
3332.7659
20
373.7224
0
VERTEX
8
1
10
3321.4902
20
375.6673
0
VERTEX
8
1
10
3310.8447
20
377.3447
0
VERTEX
8
1
10
3300.9604
20
378.7696
0
VERTEX
8
1
10
3291.9686
20
379.9565
0
VERTEX
8
1
10
3284.0004
20
380.9204
0
VERTEX
8
1
10
3277.1870
20
381.6759
0
VERTEX
8
1
10
3271.6593
20
382.2378
0
VERTEX
8
1
10
3267.5486
20
382.6209
0
VERTEX
8
1
10
3264.9861
20
382.8400
0
VERTEX
8
1
10
3264.1028
20
382.9097
0
SEQEND
0
POLYLINE
8
1
62
0
66
1
6
CONTINUOUS
0
VERTEX
8
1
10
3264.1028
20
382.9097
0
VERTEX
8
1
10
3253.5599
20
350.8111
0
VERTEX
8
1
10
3224.1644
20
261.6462
0
VERTEX
8
1
10
3194.6378
20
172.3625
0
VERTEX
8
1
10
3164.9600
20
82.9400
0
SEQEND
0
TEXT
8
2
62
1
10
3205.0100
20
82.9750
40
12.0000
50
-2.8123
1
C3
0
ENDBLK
5
61
100
AcDbBlockEnd
0
BLOCK
5
62
100
AcDbEntity
8
1
100
AcDbBlockBegin
10
0
20
0
30
0
2
Panel62
70
0
3
Panel62
0
POLYLINE
8
1
62
0
66
1
6
CONTINUOUS
0
VERTEX
8
1
10
3164.9600
20
82.9400
0
VERTEX
8
1
10
3209.3803
20
80.6900
0
VERTEX
8
1
10
3299.7403
20
76.1800
0
VERTEX
8
1
10
3392.1905
20
71.6800
0
VERTEX
8
1
10
3408.4206
20
70.9100
0
SEQEND
0
POLYLINE
8
1
62
0
66
1
6
CONTINUOUS
0
VERTEX
8
1
10
3408.4206
20
70.9100
0
VERTEX
8
1
10
3408.7534
20
71.4905
0
VERTEX
8
1
10
3409.7085
20
73.1817
0
VERTEX
8
1
10
3411.2213
20
75.9084
0
VERTEX
8
1
10
3413.2269
20
79.5951
0
VERTEX
8
1
10
3415.6605
20
84.1664
0
VERTEX
8
1
10
3418.4575
20
89.5471
0
VERTEX
8
1
10
3421.5529
20
95.6616
0
VERTEX
8
1
10
3424.8820
20
102.4347
0
VERTEX
8
1
10
3428.3801
20
109.7910
0
VERTEX
8
1
10
3431.9824
20
117.6550
0
VERTEX
8
1
10
3435.6240
20
125.9516
0
VERTEX
8
1
10
3439.2403
20
134.6052
0
VERTEX
8
1
10
3442.7664
20
143.5405
0
VERTEX
8
1
10
3446.1376
20
152.6821
0
VERTEX
8
1
10
3449.2891
20
161.9547
0
VERTEX
8
1
10
3452.1561
20
171.2829
0
VERTEX
8
1
10
3454.6738
20
180.5913
0
VERTEX
8
1
10
3456.7775
20
189.8045
0
VERTEX
8
1
10
3458.4024
20
198.8473
0
VERTEX
8
1
10
3459.4837
20
207.6442
0
VERTEX
8
1
10
3459.8955
20
213.8354
0
VERTEX
8
1
10
3459.9888
20
219.8586
0
VERTEX
8
1
10
3459.7653
20
225.7149
0
VERTEX
8
1
10
3459.2267
20
231.4056
0
VERTEX
8
1
10
3458.3749
20
236.9316
0
VERTEX
8
1
10
3457.2115
20
242.2943
0
VERTEX
8
1
10
3455.7383
20
247.4946
0
VERTEX
8
1
10
3453.9571
20
252.5338
0
VERTEX
8
1
10
3451.8696
20
257.4130
0
VERTEX
8
1
10
3449.4775
20
262.1333
0
VERTEX
8
1
10
3446.7827
20
266.6958
0
VERTEX
8
1
10
3443.7869
20
271.1018
0
VERTEX
8
1
10
3440.4918
20
275.3524
0
VERTEX
8
1
10
3436.8991
20
279.4486
0
VERTEX
8
1
10
3433.0107
20
283.3917
0
VERTEX
8
1
10
3428.8283
20
287.1827
0
VERTEX
8
1
10
3424.3536
20
290.8229
0
VERTEX
8
1
10
3419.5884
20
294.3133
0
VERTEX
8
1
10
3414.5345
20
297.6551
0
VERTEX
8
1
10
3409.1935
20
300.8495
0
VERTEX
8
1
10
3400.3890
20
305.5034
0
VERTEX
8
1
10
3391.0128
20
309.8182
0
VERTEX
8
1
10
3381.1755
20
313.8047
0
VERTEX
8
1
10
3370.9878
20
317.4738
0
VERTEX
8
1
10
3360.5602
20
320.8363
0
VERTEX
8
1
10
3350.0035
20
323.9031
0
VERTEX
8
1
10
3339.4284
20
326.6851
0
VERTEX
8
1
10
3328.9453
20
329.1932
0
VERTEX
8
1
10
3318.6651
20
331.4381
0
VERTEX
8
1
10
3308.6983
20
333.4309
0
VERTEX
8
1
10
3299.1556
20
335.1822
0
VERTEX
8
1
10
3290.1476
20
336.7031
0
VERTEX
8
1
10
3281.7850
20
338.0044
0
VERTEX
8
1
10
3274.1784
20
339.0969
0
VERTEX
8
1
10
3267.4385
20
339.9915
0
VERTEX
8
1
10
3261.6759
20
340.6991
0
VERTEX
8
1
10
3257.0013
20
341.2305
0
VERTEX
8
1
10
3253.5253
20
341.5966
0
VERTEX
8
1
10
3251.3586
20
341.8083
0
VERTEX
8
1
10
3250.6117
20
341.8765
0
SEQEND
0
POLYLINE
8
1
62
0
66
1
6
CONTINUOUS
0
VERTEX
8
1
10
3250.6117
20
341.8765
0
VERTEX
8
1
10
3224.1647
20
261.6460
0
VERTEX
8
1
10
3194.6380
20
172.3624
0
VERTEX
8
1
10
3164.9600
20
82.9400
0
SEQEND
0
TEXT
8
2
62
1
10
3205.0100
20
82.9635
40
12.0000
50
-2.8288
1
C4
0
ENDBLK
5
62
100
AcDbBlockEnd
0
BLOCK
5
63
100
AcDbEntity
8
1
100
AcDbBlockBegin
10
0
20
0
30
0
2
Panel63
70
0
3
Panel63
0
POLYLINE
8
1
62
0
66
1
6
CONTINUOUS
0
VERTEX
8
1
10
6329.9200
20
0.0800
0
VERTEX
8
1
10
6331.2900
20
89.4400
0
VERTEX
8
1
10
6332.6800
20
178.8000
0
VERTEX
8
1
10
6334.0600
20
268.1700
0
VERTEX
8
1
10
6335.4500
20
357.5300
0
VERTEX
8
1
10
6336.8400
20
446.8900
0
VERTEX
8
1
10
6336.9200
20
452.1700
0
SEQEND
0
POLYLINE
8
1
62
0
66
1
6
CONTINUOUS
0
VERTEX
8
1
10
6336.9200
20
452.1700
0
VERTEX
8
1
10
6335.8952
20
452.2719
0
VERTEX
8
1
10
6332.9087
20
452.5541
0
VERTEX
8
1
10
6328.0923
20
452.9812
0
VERTEX
8
1
10
6321.5778
20
453.5180
0
VERTEX
8
1
10
6313.4971
20
454.1291
0
VERTEX
8
1
10
6303.9820
20
454.7791
0
VERTEX
8
1
10
6293.1642
20
455.4329
0
VERTEX
8
1
10
6281.1757
20
456.0549
0
VERTEX
8
1
10
6268.1483
20
456.6100
0
VERTEX
8
1
10
6254.2137
20
457.0627
0
VERTEX
8
1
10
6239.5038
20
457.3778
0
VERTEX
8
1
10
6224.1505
20
457.5199
0
VERTEX
8
1
10
6208.2855
20
457.4538
0
VERTEX
8
1
10
6192.0406
20
457.1440
0
VERTEX
8
1
10
6175.5478
20
456.5553
0
VERTEX
8
1
10
6158.9388
20
455.6523
0
VERTEX
8
1
10
6142.3454
20
454.3998
0
VERTEX
8
1
10
6129.2217
20
453.0931
0
SEQEND
0
POLYLINE
8
1
62
0
66
1
6
CONTINUOUS
0
VERTEX
8
1
10
6129.2217
20
453.0931
0
VERTEX
8
1
10
6219.1775
20
0.0179
0
SEQEND
0
POLYLINE
8
1
62
0
66
1
6
CONTINUOUS
0
VERTEX
8
1
10
6219.1775
20
0.0179
0
VERTEX
8
1
10
6272.7588
20
0.0410
0
VERTEX
8
1
10
6329.9200
20
0.0800
0
SEQEND
0
POLYLINE
8
2
62
1
66
1
6
CONTINUOUS
0
VERTEX
8
2
10
6139.2193
20
454.0885
0
VERTEX
8
2
10
6141.1667
20
444.2800
0
SEQEND
0
TEXT
8
2
62
1
10
6328.3073
20
25.1080
40
12.0000
50
89.1129
1
T1/1
0
ENDBLK
5
63
100
AcDbBlockEnd
0
BLOCK
5
64
100
AcDbEntity
8
1
100
AcDbBlockBegin
10
0
20
0
30
0
2
Panel64
70
0
3
Panel64
0
POLYLINE
8
1
62
0
66
1
6
CONTINUOUS
0
VERTEX
8
1
10
6329.9200
20
0.0800
0
VERTEX
8
1
10
6331.2900
20
89.4400
0
VERTEX
8
1
10
6332.5866
20
172.7924
0
SEQEND
0
POLYLINE
8
1
62
0
66
1
6
CONTINUOUS
0
VERTEX
8
1
10
6332.5866
20
172.7924
0
VERTEX
8
1
10
6139.2193
20
454.0885
0
SEQEND
0
POLYLINE
8
1
62
0
66
1
6
CONTINUOUS
0
VERTEX
8
1
10
6139.2193
20
454.0885
0
VERTEX
8
1
10
6125.8994
20
452.7623
0
VERTEX
8
1
10
6109.7328
20
450.7047
0
VERTEX
8
1
10
6093.9773
20
448.1914
0
VERTEX
8
1
10
6093.9773
20
448.1914
0
VERTEX
8
1
10
6074.7446
20
444.3037
0
VERTEX
8
1
10
6056.3969
20
439.6235
0
VERTEX
8
1
10
6038.9450
20
434.1484
0
VERTEX
8
1
10
6022.4002
20
427.8757
0
VERTEX
8
1
10
6006.7734
20
420.8032
0
VERTEX
8
1
10
5992.0757
20
412.9282
0
VERTEX
8
1
10
5978.3181
20
404.2483
0
VERTEX
8
1
10
5965.5118
20
394.7611
0
VERTEX
8
1
10
5953.6678
20
384.4640
0
VERTEX
8
1
10
5945.6901
20
376.3111
0
SEQEND
0
POLYLINE
8
1
62
0
66
1
6
CONTINUOUS
0
VERTEX
8
1
10
5945.6901
20
376.3111
0
VERTEX
8
1
10
6204.3625
20
0.0140
0
SEQEND
0
POLYLINE
8
1
62
0
66
1
6
CONTINUOUS
0
VERTEX
8
1
10
6204.3625
20
0.0140
0
VERTEX
8
1
10
6210.9152
20
0.0143
0
VERTEX
8
1
10
6272.7588
20
0.0410
0
VERTEX
8
1
10
6329.9200
20
0.0800
0
SEQEND
0
POLYLINE
8
2
62
1
66
1
6
CONTINUOUS
0
VERTEX
8
2
10
5952.8177
20
383.5952
0
VERTEX
8
2
10
5958.4825
20
375.3545
0
SEQEND
0
TEXT
8
2
62
1
10
6316.7764
20
192.2613
40
12.0000
50
124.5052
1
T1/2
0
ENDBLK
5
64
100
AcDbBlockEnd
0
BLOCK
5
65
100
AcDbEntity
8
1
100
AcDbBlockBegin
10
0
20
0
30
0
2
Panel65
70
0
3
Panel65
0
POLYLINE
8
1
62
0
66
1
6
CONTINUOUS
0
VERTEX
8
1
10
6329.9200
20
0.0800
0
VERTEX
8
1
10
6331.2900
20
89.4400
0
VERTEX
8
1
10
6331.8760
20
127.1120
0
SEQEND
0
POLYLINE
8
1
62
0
66
1
6
CONTINUOUS
0
VERTEX
8
1
10
6331.8760
20
127.1120
0
VERTEX
8
1
10
5952.8177
20
383.5952
0
SEQEND
0
POLYLINE
8
1
62
0
66
1
6
CONTINUOUS
0
VERTEX
8
1
10
5952.8177
20
383.5952
0
VERTEX
8
1
10
5942.7971
20
373.3547
0
VERTEX
8
1
10
5932.9108
20
361.4305
0
VERTEX
8
1
10
5924.0200
20
348.6890
0
VERTEX
8
1
10
5916.1357
20
335.1278
0
VERTEX
8
1
10
5909.2690
20
320.7444
0
VERTEX
8
1
10
5903.4309
20
305.5363
0
VERTEX
8
1
10
5898.6326
20
289.5010
0
VERTEX
8
1
10
5894.8850
20
272.6361
0
VERTEX
8
1
10
5892.1992
20
254.9390
0
VERTEX
8
1
10
5890.5863
20
236.4073
0
VERTEX
8
1
10
5890.0573
20
217.0386
0
VERTEX
8
1
10
5890.0573
20
217.0386
0
VERTEX
8
1
10
5890.3386
20
202.7256
0
VERTEX
8
1
10
5891.1215
20
188.0986
0
VERTEX
8
1
10
5891.8691
20
179.0771
0
SEQEND
0
POLYLINE
8
1
62
0
66
1
6
CONTINUOUS
0
VERTEX
8
1
10
5891.8691
20
179.0771
0
VERTEX
8
1
10
6156.5112
20
0.0116
0
SEQEND
0
POLYLINE
8
1
62
0
66
1
6
CONTINUOUS
0
VERTEX
8
1
10
6156.5112
20
0.0116
0
VERTEX
8
1
10
6210.9152
20
0.0143
0
VERTEX
8
1
10
6272.7588
20
0.0410
0
VERTEX
8
1
10
6329.9200
20
0.0800
0
SEQEND
0
POLYLINE
8
2
62
1
66
1
6
CONTINUOUS
0
VERTEX
8
2
10
5890.9239
20
191.7907
0
VERTEX
8
2
10
5899.2061
20
186.1867
0
SEQEND
0
TEXT
8
2
62
1
10
6310.0497
20
139.4656
40
12.0000
50
145.9164
1
T1/3
0
ENDBLK
5
65
100
AcDbBlockEnd
0
BLOCK
5
66
100
AcDbEntity
8
1
100
AcDbBlockBegin
10
0
20
0
30
0
2
Panel66
70
0
3
Panel66
0
POLYLINE
8
1
62
0
66
1
6
CONTINUOUS
0
VERTEX
8
1
10
6329.9200
20
0.0800
0
VERTEX
8
1
10
6331.2900
20
89.4400
0
VERTEX
8
1
10
6331.7097
20
116.4241
0
SEQEND
0
POLYLINE
8
1
62
0
66
1
6
CONTINUOUS
0
VERTEX
8
1
10
6331.7097
20
116.4241
0
VERTEX
8
1
10
5890.9239
20
191.7907
0
SEQEND
0
POLYLINE
8
1
62
0
66
1
6
CONTINUOUS
0
VERTEX
8
1
10
5890.9239
20
191.7907
0
VERTEX
8
1
10
5891.1215
20
188.0986
0
VERTEX
8
1
10
5892.3502
20
173.2709
0
VERTEX
8
1
10
5893.9689
20
158.3558
0
VERTEX
8
1
10
5895.9218
20
143.4666
0
VERTEX
8
1
10
5898.1531
20
128.7168
0
VERTEX
8
1
10
5900.6070
20
114.2195
0
VERTEX
8
1
10
5903.2277
20
100.0881
0
VERTEX
8
1
10
5905.9594
20
86.4360
0
VERTEX
8
1
10
5908.7463
20
73.3765
0
VERTEX
8
1
10
5911.5326
20
61.0229
0
VERTEX
8
1
10
5914.2625
20
49.4885
0
VERTEX
8
1
10
5916.8803
20
38.8867
0
VERTEX
8
1
10
5919.3300
20
29.3308
0
VERTEX
8
1
10
5921.5559
20
20.9341
0
VERTEX
8
1
10
5923.5023
20
13.8099
0
VERTEX
8
1
10
5925.1132
20
8.0716
0
VERTEX
8
1
10
5926.3330
20
3.8326
0
VERTEX
8
1
10
5927.1058
20
1.2060
0
VERTEX
8
1
10
5927.3758
20
0.3053
0
SEQEND
0
POLYLINE
8
1
62
0
66
1
6
CONTINUOUS
0
VERTEX
8
1
10
5927.3758
20
0.3053
0
VERTEX
8
1
10
5999.2667
20
0.1482
0
VERTEX
8
1
10
6073.9579
20
0.0519
0
VERTEX
8
1
10
6144.5801
20
0.0110
0
VERTEX
8
1
10
6210.9152
20
0.0143
0
VERTEX
8
1
10
6272.7588
20
0.0410
0
VERTEX
8
1
10
6329.9200
20
0.0800
0
SEQEND
0
TEXT
8
2
62
1
10
6306.7303
20
118.6661
40
12.0000
50
170.2973
1
T1/4
0
ENDBLK
5
66
100
AcDbBlockEnd
0
BLOCK
5
67
100
AcDbEntity
8
1
100
AcDbBlockBegin
10
0
20
0
30
0
2
Panel67
70
0
3
Panel67
0
POLYLINE
8
1
62
0
66
1
6
CONTINUOUS
0
VERTEX
8
1
10
6329.9200
20
0.0800
0
VERTEX
8
1
10
6331.2900
20
89.4400
0
VERTEX
8
1
10
6332.6800
20
178.8000
0
VERTEX
8
1
10
6334.0600
20
268.1700
0
VERTEX
8
1
10
6334.6000
20
303.1500
0
SEQEND
0
POLYLINE
8
1
62
0
66
1
6
CONTINUOUS
0
VERTEX
8
1
10
6334.6000
20
303.1500
0
VERTEX
8
1
10
6333.9081
20
303.2204
0
VERTEX
8
1
10
6331.8917
20
303.4156
0
VERTEX
8
1
10
6328.6401
20
303.7116
0
VERTEX
8
1
10
6324.2423
20
304.0844
0
VERTEX
8
1
10
6318.7876
20
304.5098
0
VERTEX
8
1
10
6312.3650
20
304.9638
0
VERTEX
8
1
10
6305.0637
20
305.4225
0
VERTEX
8
1
10
6296.9729
20
305.8617
0
VERTEX
8
1
10
6288.1817
20
306.2574
0
VERTEX
8
1
10
6278.7792
20
306.5856
0
VERTEX
8
1
10
6268.8547
20
306.8222
0
VERTEX
8
1
10
6258.4972
20
306.9432
0
VERTEX
8
1
10
6247.7959
20
306.9246
0
VERTEX
8
1
10
6236.8399
20
306.7422
0
VERTEX
8
1
10
6225.7184
20
306.3722
0
VERTEX
8
1
10
6214.5206
20
305.7903
0
VERTEX
8
1
10
6203.3356
20
304.9726
0
VERTEX
8
1
10
6192.2525
20
303.8951
0
VERTEX
8
1
10
6181.3605
20
302.5337
0
VERTEX
8
1
10
6170.7487
20
300.8643
0
VERTEX
8
1
10
6157.8068
20
298.2751
0
VERTEX
8
1
10
6145.4652
20
295.1502
0
VERTEX
8
1
10
6133.7301
20
291.4878
0
VERTEX
8
1
10
6122.6079
20
287.2860
0
VERTEX
8
1
10
6112.1050
20
282.5429
0
VERTEX
8
1
10
6102.2276
20
277.2565
0
VERTEX
8
1
10
6092.9822
20
271.4251
0
VERTEX
8
1
10
6084.3751
20
265.0467
0
VERTEX
8
1
10
6076.4126
20
258.1193
0
VERTEX
8
1
10
6069.1011
20
250.6412
0
VERTEX
8
1
10
6062.4469
20
242.6104
0
VERTEX
8
1
10
6056.4565
20
234.0250
0
VERTEX
8
1
10
6051.1361
20
224.8832
0
VERTEX
8
1
10
6046.4920
20
215.1829
0
VERTEX
8
1
10
6042.5307
20
204.9224
0
VERTEX
8
1
10
6039.2585
20
194.0997
0
VERTEX
8
1
10
6036.6818
20
182.7130
0
VERTEX
8
1
10
6034.8068
20
170.7603
0
VERTEX
8
1
10
6033.6400
20
158.2397
0
VERTEX
8
1
10
6033.1877
20
145.1494
0
VERTEX
8
1
10
6033.2952
20
135.5951
0
VERTEX
8
1
10
6033.7252
20
125.8325
0
VERTEX
8
1
10
6034.4421
20
115.9371
0
VERTEX
8
1
10
6035.4106
20
105.9843
0
VERTEX
8
1
10
6036.5951
20
96.0498
0
VERTEX
8
1
10
6037.9602
20
86.2090
0
VERTEX
8
1
10
6039.4704
20
76.5374
0
VERTEX
8
1
10
6041.0903
20
67.1105
0
VERTEX
8
1
10
6042.7844
20
58.0039
0
VERTEX
8
1
10
6044.5172
20
49.2930
0
VERTEX
8
1
10
6046.2533
20
41.0534
0
VERTEX
8
1
10
6047.9572
20
33.3605
0
VERTEX
8
1
10
6049.5935
20
26.2899
0
VERTEX
8
1
10
6051.1266
20
19.9170
0
VERTEX
8
1
10
6052.5212
20
14.3175
0
VERTEX
8
1
10
6053.7417
20
9.5667
0
VERTEX
8
1
10
6054.7527
20
5.7402
0
VERTEX
8
1
10
6055.5188
20
2.9135
0
VERTEX
8
1
10
6056.0045
20
1.1621
0
VERTEX
8
1
10
6056.1742
20
0.5615
0
SEQEND
0
POLYLINE
8
1
62
0
66
1
6
CONTINUOUS
0
VERTEX
8
1
10
6056.1742
20
0.5615
0
VERTEX
8
1
10
6073.9663
20
0.5051
0
VERTEX
8
1
10
6144.5857
20
0.3388
0
VERTEX
8
1
10
6210.9225
20
0.2246
0
VERTEX
8
1
10
6272.7586
20
0.1419
0
VERTEX
8
1
10
6329.9200
20
0.0800
0
SEQEND
0
TEXT
8
2
62
1
10
6317.9235
20
2.1011
40
12.0000
50
-0.1008
1
T2
0
ENDBLK
5
67
100
AcDbBlockEnd
0
BLOCK
5
68
100
AcDbEntity
8
1
100
AcDbBlockBegin
10
0
20
0
30
0
2
Panel68
70
0
3
Panel68
0
POLYLINE
8
1
62
0
66
1
6
CONTINUOUS
0
VERTEX
8
1
10
6329.9200
20
0.0800
0
VERTEX
8
1
10
6331.2900
20
89.4400
0
VERTEX
8
1
10
6332.6800
20
178.8000
0
VERTEX
8
1
10
6334.1400
20
273.0100
0
SEQEND
0
POLYLINE
8
1
62
0
66
1
6
CONTINUOUS
0
VERTEX
8
1
10
6334.1400
20
273.0100
0
VERTEX
8
1
10
6333.5227
20
273.0725
0
VERTEX
8
1
10
6331.7236
20
273.2456
0
VERTEX
8
1
10
6328.8222
20
273.5078
0
VERTEX
8
1
10
6324.8977
20
273.8378
0
VERTEX
8
1
10
6320.0296
20
274.2141
0
VERTEX
8
1
10
6314.2973
20
274.6151
0
VERTEX
8
1
10
6307.7800
20
275.0195
0
VERTEX
8
1
10
6300.5572
20
275.4057
0
VERTEX
8
1
10
6292.7082
20
275.7524
0
VERTEX
8
1
10
6284.3125
20
276.0380
0
VERTEX
8
1
10
6275.4493
20
276.2411
0
VERTEX
8
1
10
6266.1980
20
276.3403
0
VERTEX
8
1
10
6256.6380
20
276.3140
0
VERTEX
8
1
10
6246.8488
20
276.1409
0
VERTEX
8
1
10
6236.9095
20
275.7994
0
VERTEX
8
1
10
6226.8997
20
275.2681
0
VERTEX
8
1
10
6216.8986
20
274.5256
0
VERTEX
8
1
10
6206.9857
20
273.5503
0
VERTEX
8
1
10
6197.2403
20
272.3209
0
VERTEX
8
1
10
6187.7417
20
270.8158
0
VERTEX
8
1
10
6176.1523
20
268.4848
0
VERTEX
8
1
10
6165.0943
20
265.6749
0
VERTEX
8
1
10
6154.5745
20
262.3848
0
VERTEX
8
1
10
6144.6001
20
258.6132
0
VERTEX
8
1
10
6135.1778
20
254.3587
0
VERTEX
8
1
10
6126.3146
20
249.6201
0
VERTEX
8
1
10
6118.0175
20
244.3961
0
VERTEX
8
1
10
6110.2935
20
238.6852
0
VERTEX
8
1
10
6103.1493
20
232.4862
0
VERTEX
8
1
10
6096.5921
20
225.7978
0
VERTEX
8
1
10
6090.6287
20
218.6187
0
VERTEX
8
1
10
6085.2661
20
210.9475
0
VERTEX
8
1
10
6080.5112
20
202.7830
0
VERTEX
8
1
10
6076.3709
20
194.1238
0
VERTEX
8
1
10
6072.8522
20
184.9685
0
VERTEX
8
1
10
6069.9621
20
175.3160
0
VERTEX
8
1
10
6067.7074
20
165.1648
0
VERTEX
8
1
10
6066.0951
20
154.5137
0
VERTEX
8
1
10
6065.1322
20
143.3612
0
VERTEX
8
1
10
6064.8256
20
131.7063
0
VERTEX
8
1
10
6065.0076
20
123.0486
0
VERTEX
8
1
10
6065.4965
20
114.2003
0
VERTEX
8
1
10
6066.2581
20
105.2301
0
VERTEX
8
1
10
6067.2584
20
96.2066
0
VERTEX
8
1
10
6068.4629
20
87.1983
0
VERTEX
8
1
10
6069.8376
20
78.2739
0
VERTEX
8
1
10
6071.3483
20
69.5020
0
VERTEX
8
1
10
6072.9607
20
60.9513
0
VERTEX
8
1
10
6074.6406
20
52.6902
0
VERTEX
8
1
10
6076.3539
20
44.7876
0
VERTEX
8
1
10
6078.0664
20
37.3119
0
VERTEX
8
1
10
6079.7438
20
30.3318
0
VERTEX
8
1
10
6081.3519
20
23.9159
0
VERTEX
8
1
10
6082.8566
20
18.1329
0
VERTEX
8
1
10
6084.2236
20
13.0513
0
VERTEX
8
1
10
6085.4188
20
8.7397
0
VERTEX
8
1
10
6086.4079
20
5.2668
0
VERTEX
8
1
10
6087.1567
20
2.7013
0
VERTEX
8
1
10
6087.6311
20
1.1116
0
VERTEX
8
1
10
6087.7968
20
0.5665
0
SEQEND
0
POLYLINE
8
1
62
0
66
1
6
CONTINUOUS
0
VERTEX
8
1
10
6087.7968
20
0.5665
0
VERTEX
8
1
10
6144.5833
20
0.4116
0
VERTEX
8
1
10
6210.9190
20
0.2713
0
VERTEX
8
1
10
6272.7562
20
0.1643
0
VERTEX
8
1
10
6329.9200
20
0.0800
0
SEQEND
0
TEXT
8
2
62
1
10
6317.9240
20
2.1041
40
12.0000
50
-0.1151
1
T3
0
ENDBLK
5
68
100
AcDbBlockEnd
0
BLOCK
5
69
100
AcDbEntity
8
1
100
AcDbBlockBegin
10
0
20
0
30
0
2
Panel69
70
0
3
Panel69
0
POLYLINE
8
1
62
0
66
1
6
CONTINUOUS
0
VERTEX
8
1
10
6329.9200
20
0.0800
0
VERTEX
8
1
10
6331.2900
20
89.4400
0
VERTEX
8
1
10
6332.6800
20
178.8000
0
VERTEX
8
1
10
6333.6800
20
243.5200
0
SEQEND
0
POLYLINE
8
1
62
0
66
1
6
CONTINUOUS
0
VERTEX
8
1
10
6333.6800
20
243.5200
0
VERTEX
8
1
10
6333.1386
20
243.5742
0
VERTEX
8
1
10
6331.5605
20
243.7244
0
VERTEX
8
1
10
6329.0151
20
243.9516
0
VERTEX
8
1
10
6325.5717
20
244.2371
0
VERTEX
8
1
10
6321.2998
20
244.5620
0
VERTEX
8
1
10
6316.2686
20
244.9074
0
VERTEX
8
1
10
6310.5476
20
245.2544
0
VERTEX
8
1
10
6304.2060
20
245.5844
0
VERTEX
8
1
10
6297.3132
20
245.8784
0
VERTEX
8
1
10
6289.9387
20
246.1175
0
VERTEX
8
1
10
6282.1516
20
246.2829
0
VERTEX
8
1
10
6274.0215
20
246.3559
0
VERTEX
8
1
10
6265.6175
20
246.3174
0
VERTEX
8
1
10
6257.0092
20
246.1488
0
VERTEX
8
1
10
6248.2658
20
245.8311
0
VERTEX
8
1
10
6239.4567
20
245.3455
0
VERTEX
8
1
10
6230.6513
20
244.6732
0
VERTEX
8
1
10
6221.9189
20
243.7953
0
VERTEX
8
1
10
6213.3288
20
242.6929
0
VERTEX
8
1
10
6204.9504
20
241.3473
0
VERTEX
8
1
10
6194.7194
20
239.2685
0
VERTEX
8
1
10
6184.9482
20
236.7679
0
VERTEX
8
1
10
6175.6448
20
233.8450
0
VERTEX
8
1
10
6166.8172
20
230.4994
0
VERTEX
8
1
10
6158.4735
20
226.7304
0
VERTEX
8
1
10
6150.6218
20
222.5376
0
VERTEX
8
1
10
6143.2700
20
217.9205
0
VERTEX
8
1
10
6136.4262
20
212.8786
0
VERTEX
8
1
10
6130.0984
20
207.4114
0
VERTEX
8
1
10
6124.2947
20
201.5183
0
VERTEX
8
1
10
6119.0231
20
195.1989
0
VERTEX
8
1
10
6114.2916
20
188.4527
0
VERTEX
8
1
10
6110.1083
20
181.2791
0
VERTEX
8
1
10
6106.4813
20
173.6776
0
VERTEX
8
1
10
6103.4185
20
165.6478
0
VERTEX
8
1
10
6100.9279
20
157.1891
0
VERTEX
8
1
10
6099.0178
20
148.3011
0
VERTEX
8
1
10
6097.6960
20
138.9832
0
VERTEX
8
1
10
6096.9706
20
129.2348
0
VERTEX
8
1
10
6096.8496
20
119.0556
0
VERTEX
8
1
10
6097.1484
20
111.2447
0
VERTEX
8
1
10
6097.7491
20
103.2591
0
VERTEX
8
1
10
6098.6176
20
95.1610
0
VERTEX
8
1
10
6099.7194
20
87.0127
0
VERTEX
8
1
10
6101.0204
20
78.8762
0
VERTEX
8
1
10
6102.4860
20
70.8139
0
VERTEX
8
1
10
6104.0821
20
62.8879
0
VERTEX
8
1
10
6105.7744
20
55.1605
0
VERTEX
8
1
10
6107.5284
20
47.6937
0
VERTEX
8
1
10
6109.3100
20
40.5500
0
VERTEX
8
1
10
6111.0847
20
33.7913
0
VERTEX
8
1
10
6112.8183
20
27.4800
0
VERTEX
8
1
10
6114.4765
20
21.6783
0
VERTEX
8
1
10
6116.0249
20
16.4483
0
VERTEX
8
1
10
6117.4292
20
11.8523
0
VERTEX
8
1
10
6118.6552
20
7.9524
0
VERTEX
8
1
10
6119.6684
20
4.8109
0
VERTEX
8
1
10
6120.4346
20
2.4899
0
VERTEX
8
1
10
6120.9195
20
1.0517
0
VERTEX
8
1
10
6121.0888
20
0.5585
0
SEQEND
0
POLYLINE
8
1
62
0
66
1
6
CONTINUOUS
0
VERTEX
8
1
10
6121.0888
20
0.5585
0
VERTEX
8
1
10
6144.5812
20
0.4844
0
VERTEX
8
1
10
6210.9110
20
0.3180
0
VERTEX
8
1
10
6272.7526
20
0.1867
0
VERTEX
8
1
10
6329.9200
20
0.0800
0
SEQEND
0
TEXT
8
2
62
1
10
6317.9246
20
2.1075
40
12.0000
50
-0.1313
1
T4
0
ENDBLK
5
69
100
AcDbBlockEnd
0
BLOCK
5
70
100
AcDbEntity
8
1
100
AcDbBlockBegin
10
0
20
0
30
0
2
Panel70
70
0
3
Panel70
0
POLYLINE
8
1
62
0
66
1
6
CONTINUOUS
0
VERTEX
8
1
10
6346.6900
20
1126.0700
0
VERTEX
8
1
10
6347.1600
20
1161.1700
0
VERTEX
8
1
10
6348.3100
20
1250.3700
0
VERTEX
8
1
10
6349.4300
20
1339.5700
0
VERTEX
8
1
10
6350.0000
20
1386.8900
0
SEQEND
0
POLYLINE
8
1
62
0
66
1
6
CONTINUOUS
0
VERTEX
8
1
10
6350.0000
20
1386.8900
0
VERTEX
8
1
10
6349.0654
20
1386.8933
0
VERTEX
8
1
10
6346.3619
20
1386.8706
0
VERTEX
8
1
10
6342.0396
20
1386.7733
0
VERTEX
8
1
10
6336.2490
20
1386.5524
0
VERTEX
8
1
10
6329.1403
20
1386.1593
0
VERTEX
8
1
10
6320.8638
20
1385.5451
0
VERTEX
8
1
10
6311.5699
20
1384.6611
0
VERTEX
8
1
10
6301.4087
20
1383.4585
0
VERTEX
8
1
10
6290.5307
20
1381.8885
0
VERTEX
8
1
10
6279.0860
20
1379.9025
0
VERTEX
8
1
10
6267.2251
20
1377.4514
0
VERTEX
8
1
10
6255.0982
20
1374.4868
0
VERTEX
8
1
10
6242.8556
20
1370.9596
0
VERTEX
8
1
10
6230.6476
20
1366.8212
0
VERTEX
8
1
10
6218.6244
20
1362.0228
0
VERTEX
8
1
10
6206.9365
20
1356.5156
0
VERTEX
8
1
10
6195.7341
20
1350.2508
0
VERTEX
8
1
10
6185.1674
20
1343.1797
0
VERTEX
8
1
10
6175.3869
20
1335.2535
0
VERTEX
8
1
10
6166.5427
20
1326.4234
0
VERTEX
8
1
10
6158.4860
20
1316.3012
0
VERTEX
8
1
10
6151.5226
20
1305.3065
0
VERTEX
8
1
10
6145.5792
20
1293.5897
0
VERTEX
8
1
10
6140.5820
20
1281.3013
0
VERTEX
8
1
10
6136.4576
20
1268.5918
0
VERTEX
8
1
10
6133.1323
20
1255.6116
0
VERTEX
8
1
10
6130.5327
20
1242.5113
0
VERTEX
8
1
10
6128.5852
20
1229.4413
0
VERTEX
8
1
10
6127.2162
20
1216.5522
0
VERTEX
8
1
10
6126.3521
20
1203.9943
0
VERTEX
8
1
10
6125.9194
20
1191.9183
0
VERTEX
8
1
10
6125.8446
20
1180.4745
0
VERTEX
8
1
10
6126.0541
20
1169.8134
0
VERTEX
8
1
10
6126.4743
20
1160.0856
0
VERTEX
8
1
10
6127.0316
20
1151.4415
0
VERTEX
8
1
10
6127.6526
20
1144.0316
0
VERTEX
8
1
10
6128.2636
20
1138.0064
0
VERTEX
8
1
10
6128.7911
20
1133.5164
0
VERTEX
8
1
10
6129.1616
20
1130.7120
0
VERTEX
8
1
10
6129.3014
20
1129.7438
0
SEQEND
0
POLYLINE
8
1
62
0
66
1
6
CONTINUOUS
0
VERTEX
8
1
10
6129.3014
20
1129.7438
0
VERTEX
8
1
10
6136.3271
20
1129.6250
0
VERTEX
8
1
10
6170.3970
20
1129.0317
0
VERTEX
8
1
10
6204.7757
20
1128.4393
0
VERTEX
8
1
10
6239.5199
20
1127.8473
0
VERTEX
8
1
10
6274.6928
20
1127.2555
0
VERTEX
8
1
10
6310.3749
20
1126.6633
0
VERTEX
8
1
10
6346.6900
20
1126.0700
0
SEQEND
0
TEXT
8
2
62
1
10
6266.7352
20
1129.4215
40
12.0000
50
-0.9682
1
TR1/1
0
ENDBLK
5
70
100
AcDbBlockEnd
0
BLOCK
5
71
100
AcDbEntity
8
1
100
AcDbBlockBegin
10
0
20
0
30
0
2
Panel71
70
0
3
Panel71
0
POLYLINE
8
1
62
0
66
1
6
CONTINUOUS
0
VERTEX
8
1
10
6346.6900
20
1126.0700
0
VERTEX
8
1
10
6347.1600
20
1161.1700
0
VERTEX
8
1
10
6348.3100
20
1250.3700
0
VERTEX
8
1
10
6349.4300
20
1339.5700
0
VERTEX
8
1
10
6349.6100
20
1354.5400
0
SEQEND
0
POLYLINE
8
1
62
0
66
1
6
CONTINUOUS
0
VERTEX
8
1
10
6349.6100
20
1354.5400
0
VERTEX
8
1
10
6348.8513
20
1354.5378
0
VERTEX
8
1
10
6346.6555
20
1354.5059
0
VERTEX
8
1
10
6343.1432
20
1354.4064
0
VERTEX
8
1
10
6338.4349
20
1354.2012
0
VERTEX
8
1
10
6332.6512
20
1353.8523
0
VERTEX
8
1
10
6325.9125
20
1353.3218
0
VERTEX
8
1
10
6318.3394
20
1352.5717
0
VERTEX
8
1
10
6310.0524
20
1351.5640
0
VERTEX
8
1
10
6301.1722
20
1350.2608
0
VERTEX
8
1
10
6291.8191
20
1348.6239
0
VERTEX
8
1
10
6282.1138
20
1346.6156
0
VERTEX
8
1
10
6272.1767
20
1344.1976
0
VERTEX
8
1
10
6262.1285
20
1341.3322
0
VERTEX
8
1
10
6252.0896
20
1337.9813
0
VERTEX
8
1
10
6242.1806
20
1334.1069
0
VERTEX
8
1
10
6232.5220
20
1329.6710
0
VERTEX
8
1
10
6223.2343
20
1324.6356
0
VERTEX
8
1
10
6214.4382
20
1318.9628
0
VERTEX
8
1
10
6206.2540
20
1312.6146
0
VERTEX
8
1
10
6198.8024
20
1305.5530
0
VERTEX
8
1
10
6191.3621
20
1296.6826
0
VERTEX
8
1
10
6184.9456
20
1286.9877
0
VERTEX
8
1
10
6179.4834
20
1276.6065
0
VERTEX
8
1
10
6174.9061
20
1265.6775
0
VERTEX
8
1
10
6171.1442
20
1254.3390
0
VERTEX
8
1
10
6168.1283
20
1242.7294
0
VERTEX
8
1
10
6165.7890
20
1230.9869
0
VERTEX
8
1
10
6164.0567
20
1219.2500
0
VERTEX
8
1
10
6162.8621
20
1207.6571
0
VERTEX
8
1
10
6162.1357
20
1196.3463
0
VERTEX
8
1
10
6161.8081
20
1185.4562
0
VERTEX
8
1
10
6161.8098
20
1175.1251
0
VERTEX
8
1
10
6162.0714
20
1165.4912
0
VERTEX
8
1
10
6162.5234
20
1156.6930
0
VERTEX
8
1
10
6163.0963
20
1148.8687
0
VERTEX
8
1
10
6163.7209
20
1142.1569
0
VERTEX
8
1
10
6164.3275
20
1136.6957
0
VERTEX
8
1
10
6164.8468
20
1132.6236
0
VERTEX
8
1
10
6165.2093
20
1130.0788
0
VERTEX
8
1
10
6165.3456
20
1129.1998
0
SEQEND
0
POLYLINE
8
1
62
0
66
1
6
CONTINUOUS
0
VERTEX
8
1
10
6165.3456
20
1129.1998
0
VERTEX
8
1
10
6170.3906
20
1129.1085
0
VERTEX
8
1
10
6204.7708
20
1128.5006
0
VERTEX
8
1
10
6239.5151
20
1127.8933
0
VERTEX
8
1
10
6274.6950
20
1127.2861
0
VERTEX
8
1
10
6310.3797
20
1126.6786
0
VERTEX
8
1
10
6346.6900
20
1126.0700
0
SEQEND
0
TEXT
8
2
62
1
10
6266.7364
20
1129.4502
40
12.0000
50
-0.9888
1
TR1/2
0
ENDBLK
5
71
100
AcDbBlockEnd
0
BLOCK
5
72
100
AcDbEntity
8
1
100
AcDbBlockBegin
10
0
20
0
30
0
2
Panel72
70
0
3
Panel72
0
POLYLINE
8
1
62
0
66
1
6
CONTINUOUS
0
VERTEX
8
1
10
6346.6900
20
1126.0700
0
VERTEX
8
1
10
6347.1600
20
1161.1700
0
VERTEX
8
1
10
6348.3100
20
1250.3700
0
VERTEX
8
1
10
6349.4300
20
1339.5700
0
VERTEX
8
1
10
6350.5100
20
1428.7800
0
VERTEX
8
1
10
6351.5500
20
1517.9800
0
VERTEX
8
1
10
6351.6900
20
1530.6500
0
SEQEND
0
POLYLINE
8
1
62
0
66
1
6
CONTINUOUS
0
VERTEX
8
1
10
6351.6900
20
1530.6500
0
VERTEX
8
1
10
6350.9943
20
1530.6486
0
VERTEX
8
1
10
6348.9657
20
1530.6323
0
VERTEX
8
1
10
6345.6916
20
1530.5830
0
VERTEX
8
1
10
6341.2595
20
1530.4823
0
VERTEX
8
1
10
6335.7568
20
1530.3122
0
VERTEX
8
1
10
6329.2712
20
1530.0543
0
VERTEX
8
1
10
6321.8899
20
1529.6905
0
VERTEX
8
1
10
6313.7006
20
1529.2027
0
VERTEX
8
1
10
6304.7908
20
1528.5725
0
VERTEX
8
1
10
6295.2478
20
1527.7818
0
VERTEX
8
1
10
6285.1593
20
1526.8125
0
VERTEX
8
1
10
6274.6126
20
1525.6462
0
VERTEX
8
1
10
6263.6952
20
1524.2648
0
VERTEX
8
1
10
6252.4948
20
1522.6501
0
VERTEX
8
1
10
6241.0986
20
1520.7839
0
VERTEX
8
1
10
6229.5943
20
1518.6480
0
VERTEX
8
1
10
6218.0693
20
1516.2242
0
VERTEX
8
1
10
6206.6111
20
1513.4942
0
VERTEX
8
1
10
6195.3072
20
1510.4400
0
VERTEX
8
1
10
6184.2450
20
1507.0432
0
VERTEX
8
1
10
6184.2450
20
1507.0432
0
VERTEX
8
1
10
6158.7199
20
1497.3316
0
VERTEX
8
1
10
6143.8723
20
1489.9931
0
SEQEND
0
POLYLINE
8
1
62
0
66
1
6
CONTINUOUS
0
VERTEX
8
1
10
6143.8723
20
1489.9931
0
VERTEX
8
1
10
6228.8148
20
1128.9244
0
SEQEND
0
POLYLINE
8
1
62
0
66
1
6
CONTINUOUS
0
VERTEX
8
1
10
6228.8148
20
1128.9244
0
VERTEX
8
1
10
6239.5005
20
1128.6598
0
VERTEX
8
1
10
6274.6781
20
1127.7987
0
VERTEX
8
1
10
6310.3677
20
1126.9358
0
VERTEX
8
1
10
6346.6900
20
1126.0700
0
SEQEND
0
POLYLINE
8
2
62
1
66
1
6
CONTINUOUS
0
VERTEX
8
2
10
6153.0752
20
1494.5417
0
VERTEX
8
2
10
6155.3652
20
1484.8074
0
SEQEND
0
TEXT
8
2
62
1
10
6345.4991
20
1151.0866
40
12.0000
50
89.2919
1
TR1/3_1
0
ENDBLK
5
72
100
AcDbBlockEnd
0
BLOCK
5
73
100
AcDbEntity
8
1
100
AcDbBlockBegin
10
0
20
0
30
0
2
Panel73
70
0
3
Panel73
0
POLYLINE
8
1
62
0
66
1
6
CONTINUOUS
0
VERTEX
8
1
10
6346.6900
20
1126.0700
0
VERTEX
8
1
10
6347.1600
20
1161.1700
0
VERTEX
8
1
10
6348.3100
20
1250.3700
0
VERTEX
8
1
10
6348.5809
20
1271.9413
0
SEQEND
0
POLYLINE
8
1
62
0
66
1
6
CONTINUOUS
0
VERTEX
8
1
10
6348.5809
20
1271.9413
0
VERTEX
8
1
10
6153.0752
20
1494.5417
0
SEQEND
0
POLYLINE
8
1
62
0
66
1
6
CONTINUOUS
0
VERTEX
8
1
10
6153.0752
20
1494.5417
0
VERTEX
8
1
10
6135.1123
20
1485.6635
0
VERTEX
8
1
10
6113.3993
20
1472.2087
0
VERTEX
8
1
10
6093.5580
20
1457.1366
0
VERTEX
8
1
10
6075.5654
20
1440.6170
0
VERTEX
8
1
10
6059.3985
20
1422.8194
0
VERTEX
8
1
10
6045.0344
20
1403.9133
0
VERTEX
8
1
10
6032.4501
20
1384.0685
0
VERTEX
8
1
10
6021.6227
20
1363.4545
0
VERTEX
8
1
10
6012.5291
20
1342.2408
0
VERTEX
8
1
10
6010.4805
20
1336.2349
0
SEQEND
0
POLYLINE
8
1
62
0
66
1
6
CONTINUOUS
0
VERTEX
8
1
10
6010.4805
20
1336.2349
0
VERTEX
8
1
10
6191.7482
20
1129.8456
0
SEQEND
0
POLYLINE
8
1
62
0
66
1
6
CONTINUOUS
0
VERTEX
8
1
10
6191.7482
20
1129.8456
0
VERTEX
8
1
10
6204.7603
20
1129.5201
0
VERTEX
8
1
10
6239.5005
20
1128.6598
0
VERTEX
8
1
10
6274.6781
20
1127.7987
0
VERTEX
8
1
10
6310.3677
20
1126.9358
0
VERTEX
8
1
10
6346.6900
20
1126.0700
0
SEQEND
0
POLYLINE
8
2
62
1
66
1
6
CONTINUOUS
0
VERTEX
8
2
10
6014.4924
20
1346.8208
0
VERTEX
8
2
10
6021.0914
20
1339.3072
0
SEQEND
0
TEXT
8
2
62
1
10
6330.9563
20
1289.7353
40
12.0000
50
131.2922
1
TR1/3_2
0
ENDBLK
5
73
100
AcDbBlockEnd
0
BLOCK
5
74
100
AcDbEntity
8
1
100
AcDbBlockBegin
10
0
20
0
30
0
2
Panel74
70
0
3
Panel74
0
POLYLINE
8
1
62
0
66
1
6
CONTINUOUS
0
VERTEX
8
1
10
6346.6900
20
1126.0700
0
VERTEX
8
1
10
6347.1600
20
1161.1700
0
VERTEX
8
1
10
6348.0563
20
1230.6931
0
SEQEND
0
POLYLINE
8
1
62
0
66
1
6
CONTINUOUS
0
VERTEX
8
1
10
6348.0563
20
1230.6931
0
VERTEX
8
1
10
6014.4924
20
1346.8208
0
SEQEND
0
POLYLINE
8
1
62
0
66
1
6
CONTINUOUS
0
VERTEX
8
1
10
6014.4924
20
1346.8208
0
VERTEX
8
1
10
6012.5291
20
1342.2408
0
VERTEX
8
1
10
6005.1464
20
1320.5972
0
VERTEX
8
1
10
5999.4517
20
1298.6932
0
VERTEX
8
1
10
5995.4220
20
1276.6984
0
VERTEX
8
1
10
5993.0344
20
1254.7824
0
VERTEX
8
1
10
5992.2657
20
1233.1149
0
VERTEX
8
1
10
5993.0932
20
1211.8653
0
VERTEX
8
1
10
5995.4939
20
1191.2034
0
VERTEX
8
1
10
5999.4447
20
1171.2986
0
VERTEX
8
1
10
6004.9227
20
1152.3207
0
VERTEX
8
1
10
6011.9050
20
1134.4392
0
SEQEND
0
POLYLINE
8
1
62
0
66
1
6
CONTINUOUS
0
VERTEX
8
1
10
6011.9050
20
1134.4392
0
VERTEX
8
1
10
6035.5361
20
1133.8261
0
VERTEX
8
1
10
6068.9228
20
1132.9631
0
VERTEX
8
1
10
6102.5049
20
1132.1012
0
VERTEX
8
1
10
6136.3105
20
1131.2403
0
VERTEX
8
1
10
6170.3803
20
1130.3801
0
VERTEX
8
1
10
6204.7603
20
1129.5201
0
VERTEX
8
1
10
6239.5005
20
1128.6598
0
VERTEX
8
1
10
6274.6781
20
1127.7987
0
VERTEX
8
1
10
6310.3677
20
1126.9358
0
VERTEX
8
1
10
6346.6900
20
1126.0700
0
SEQEND
0
POLYLINE
8
2
62
1
66
1
6
CONTINUOUS
0
VERTEX
8
2
10
6007.9606
20
1144.5410
0
VERTEX
8
2
10
6017.9574
20
1144.2911
0
SEQEND
0
TEXT
8
2
62
1
10
6323.9530
20
1237.4962
40
12.0000
50
160.8048
1
TR1/3_3
0
ENDBLK
5
74
100
AcDbBlockEnd
0
BLOCK
5
75
100
AcDbEntity
8
1
100
AcDbBlockBegin
10
0
20
0
30
0
2
Panel75
70
0
3
Panel75
0
POLYLINE
8
1
62
0
66
1
6
CONTINUOUS
0
VERTEX
8
1
10
6345.6845
20
1027.4973
0
VERTEX
8
1
10
6346.1471
20
1071.9679
0
VERTEX
8
1
10
6346.6900
20
1126.0700
0
VERTEX
8
1
10
6347.1600
20
1161.1700
0
VERTEX
8
1
10
6347.9076
20
1219.1610
0
SEQEND
0
POLYLINE
8
1
62
0
66
1
6
CONTINUOUS
0
VERTEX
8
1
10
6347.9076
20
1219.1610
0
VERTEX
8
1
10
6007.9606
20
1144.5410
0
SEQEND
0
POLYLINE
8
1
62
0
66
1
6
CONTINUOUS
0
VERTEX
8
1
10
6007.9606
20
1144.5410
0
VERTEX
8
1
10
6011.9050
20
1134.4392
0
VERTEX
8
1
10
6011.9050
20
1134.4392
0
VERTEX
8
1
10
6016.5549
20
1124.7872
0
VERTEX
8
1
10
6021.6928
20
1115.5332
0
VERTEX
8
1
10
6027.3248
20
1106.6634
0
VERTEX
8
1
10
6033.4568
20
1098.1639
0
VERTEX
8
1
10
6040.0950
20
1090.0207
0
VERTEX
8
1
10
6047.2452
20
1082.2199
0
VERTEX
8
1
10
6054.9135
20
1074.7476
0
VERTEX
8
1
10
6063.1059
20
1067.5899
0
VERTEX
8
1
10
6071.8284
20
1060.7328
0
VERTEX
8
1
10
6081.0870
20
1054.1626
0
VERTEX
8
1
10
6090.8877
20
1047.8651
0
VERTEX
8
1
10
6101.2365
20
1041.8266
0
VERTEX
8
1
10
6112.1394
20
1036.0331
0
VERTEX
8
1
10
6123.6025
20
1030.4707
0
VERTEX
8
1
10
6135.6317
20
1025.1255
0
VERTEX
8
1
10
6148.2331
20
1019.9836
0
VERTEX
8
1
10
6161.4126
20
1015.0310
0
VERTEX
8
1
10
6175.1762
20
1010.2538
0
VERTEX
8
1
10
6189.5300
20
1005.6382
0
VERTEX
8
1
10
6204.4800
20
1001.1701
0
VERTEX
8
1
10
6204.4800
20
1001.1701
0
VERTEX
8
1
10
6213.7784
20
998.5432
0
SEQEND
0
POLYLINE
8
1
62
0
66
1
6
CONTINUOUS
0
VERTEX
8
1
10
6213.7784
20
998.5432
0
VERTEX
8
1
10
6345.6845
20
1027.4973
0
SEQEND
0
POLYLINE
8
2
62
1
66
1
6
CONTINUOUS
0
VERTEX
8
2
10
6193.7345
20
1004.3816
0
VERTEX
8
2
10
6203.5020
20
1006.5256
0
SEQEND
0
TEXT
8
2
62
1
10
6323.8106
20
1212.3359
40
12.0000
50
192.3804
1
TR1/3_4
0
ENDBLK
5
75
100
AcDbBlockEnd
0
BLOCK
5
76
100
AcDbEntity
8
1
100
AcDbBlockBegin
10
0
20
0
30
0
2
Panel76
70
0
3
Panel76
0
POLYLINE
8
1
62
0
66
1
6
CONTINUOUS
0
VERTEX
8
1
10
6349.2989
20
1329.1260
0
VERTEX
8
1
10
6193.7345
20
1004.3816
0
SEQEND
0
POLYLINE
8
1
62
0
66
1
6
CONTINUOUS
0
VERTEX
8
1
10
6193.7345
20
1004.3816
0
VERTEX
8
1
10
6204.4800
20
1001.1701
0
VERTEX
8
1
10
6204.4800
20
1001.1701
0
VERTEX
8
1
10
6213.9828
20
998.4855
0
VERTEX
8
1
10
6223.6445
20
995.8601
0
VERTEX
8
1
10
6233.3952
20
993.3025
0
VERTEX
8
1
10
6243.1650
20
990.8211
0
VERTEX
8
1
10
6252.8841
20
988.4245
0
VERTEX
8
1
10
6262.4827
20
986.1210
0
VERTEX
8
1
10
6271.8907
20
983.9191
0
VERTEX
8
1
10
6281.0384
20
981.8274
0
VERTEX
8
1
10
6289.8558
20
979.8544
0
VERTEX
8
1
10
6298.2731
20
978.0084
0
VERTEX
8
1
10
6306.2204
20
976.2980
0
VERTEX
8
1
10
6313.6278
20
974.7316
0
VERTEX
8
1
10
6320.4255
20
973.3178
0
VERTEX
8
1
10
6326.5435
20
972.0649
0
VERTEX
8
1
10
6331.9121
20
970.9816
0
VERTEX
8
1
10
6336.4612
20
970.0762
0
VERTEX
8
1
10
6340.1210
20
969.3573
0
VERTEX
8
1
10
6342.8217
20
968.8332
0
VERTEX
8
1
10
6344.4934
20
968.5126
0
VERTEX
8
1
10
6345.0661
20
968.4038
0
SEQEND
0
POLYLINE
8
1
62
0
66
1
6
CONTINUOUS
0
VERTEX
8
1
10
6345.0661
20
968.4038
0
VERTEX
8
1
10
6345.2191
20
982.7544
0
VERTEX
8
1
10
6346.1471
20
1071.9679
0
VERTEX
8
1
10
6346.6900
20
1126.0700
0
VERTEX
8
1
10
6347.1600
20
1161.1700
0
VERTEX
8
1
10
6348.3100
20
1250.3700
0
VERTEX
8
1
10
6349.2989
20
1329.1260
0
SEQEND
0
TEXT
8
2
62
1
10
6339.8510
20
1305.9314
40
12.0000
50
244.4039
1
TR1/3_5
0
ENDBLK
5
76
100
AcDbBlockEnd
0
BLOCK
5
77
100
AcDbEntity
8
1
100
AcDbBlockBegin
10
0
20
0
30
0
2
Panel77
70
0
3
Panel77
0
POLYLINE
8
1
62
0
66
1
6
CONTINUOUS
0
VERTEX
8
1
10
3520.1100
20
1200.1100
0
VERTEX
8
1
10
3529.9232
20
1234.2733
0
VERTEX
8
1
10
3555.5307
20
1323.7120
0
VERTEX
8
1
10
3581.0660
20
1413.2380
0
VERTEX
8
1
10
3606.5288
20
1502.8820
0
VERTEX
8
1
10
3631.9493
20
1592.6454
0
VERTEX
8
1
10
3657.3070
20
1682.5690
0
VERTEX
8
1
10
3657.7877
20
1684.0489
0
VERTEX
8
1
10
3679.8103
20
1752.0721
0
SEQEND
0
POLYLINE
8
1
62
0
66
1
6
CONTINUOUS
0
VERTEX
8
1
10
3679.8103
20
1752.0721
0
VERTEX
8
1
10
3680.6788
20
1751.9638
0
VERTEX
8
1
10
3683.2088
20
1751.6332
0
VERTEX
8
1
10
3687.2866
20
1751.0721
0
VERTEX
8
1
10
3692.7986
20
1750.2722
0
VERTEX
8
1
10
3699.6314
20
1749.2250
0
VERTEX
8
1
10
3707.6713
20
1747.9223
0
VERTEX
8
1
10
3716.8048
20
1746.3557
0
VERTEX
8
1
10
3726.9183
20
1744.5169
0
VERTEX
8
1
10
3737.8983
20
1742.3976
0
VERTEX
8
1
10
3749.6312
20
1739.9894
0
VERTEX
8
1
10
3762.0035
20
1737.2840
0
VERTEX
8
1
10
3774.9015
20
1734.2731
0
VERTEX
8
1
10
3788.2118
20
1730.9483
0
VERTEX
8
1
10
3801.8207
20
1727.3014
0
VERTEX
8
1
10
3815.6147
20
1723.3240
0
VERTEX
8
1
10
3829.4803
20
1719.0077
0
VERTEX
8
1
10
3843.3039
20
1714.3442
0
VERTEX
8
1
10
3856.9719
20
1709.3252
0
VERTEX
8
1
10
3870.3707
20
1703.9424
0
VERTEX
8
1
10
3877.5204
20
1700.7812
0
SEQEND
0
POLYLINE
8
1
62
0
66
1
6
CONTINUOUS
0
VERTEX
8
1
10
3877.5204
20
1700.7812
0
VERTEX
8
1
10
3643.8388
20
1197.2558
0
SEQEND
0
POLYLINE
8
1
62
0
66
1
6
CONTINUOUS
0
VERTEX
8
1
10
3643.8388
20
1197.2558
0
VERTEX
8
1
10
3611.1317
20
1198.0100
0
VERTEX
8
1
10
3565.6114
20
1199.0600
0
VERTEX
8
1
10
3520.1100
20
1200.1100
0
SEQEND
0
POLYLINE
8
2
62
1
66
1
6
CONTINUOUS
0
VERTEX
8
2
10
3868.3414
20
1704.7576
0
VERTEX
8
2
10
3864.1317
20
1695.6869
0
SEQEND
0
TEXT
8
2
62
1
10
3540.0264
20
1220.3729
40
12.0000
50
73.8632
1
CR1/1_1
0
ENDBLK
5
77
100
AcDbBlockEnd
0
BLOCK
5
78
100
AcDbEntity
8
1
100
AcDbBlockBegin
10
0
20
0
30
0
2
Panel78
70
0
3
Panel78
0
POLYLINE
8
1
62
0
66
1
6
CONTINUOUS
0
VERTEX
8
1
10
3520.1100
20
1200.1100
0
VERTEX
8
1
10
3529.9232
20
1234.2733
0
VERTEX
8
1
10
3555.5307
20
1323.7120
0
VERTEX
8
1
10
3573.5580
20
1386.9151
0
SEQEND
0
POLYLINE
8
1
62
0
66
1
6
CONTINUOUS
0
VERTEX
8
1
10
3573.5580
20
1386.9151
0
VERTEX
8
1
10
3868.3414
20
1704.7576
0
SEQEND
0
POLYLINE
8
1
62
0
66
1
6
CONTINUOUS
0
VERTEX
8
1
10
3868.3414
20
1704.7576
0
VERTEX
8
1
10
3870.3707
20
1703.9424
0
VERTEX
8
1
10
3883.3869
20
1698.1874
0
VERTEX
8
1
10
3883.3869
20
1698.1874
0
VERTEX
8
1
10
3913.7997
20
1682.1821
0
VERTEX
8
1
10
3941.1987
20
1663.9986
0
VERTEX
8
1
10
3965.6678
20
1643.8338
0
VERTEX
8
1
10
3987.2912
20
1621.8845
0
VERTEX
8
1
10
4006.1526
20
1598.3478
0
VERTEX
8
1
10
4021.6117
20
1574.5365
0
SEQEND
0
POLYLINE
8
1
62
0
66
1
6
CONTINUOUS
0
VERTEX
8
1
10
4021.6117
20
1574.5365
0
VERTEX
8
1
10
3671.1191
20
1196.6270
0
SEQEND
0
POLYLINE
8
1
62
0
66
1
6
CONTINUOUS
0
VERTEX
8
1
10
3671.1191
20
1196.6270
0
VERTEX
8
1
10
3656.6717
20
1196.9600
0
VERTEX
8
1
10
3611.1317
20
1198.0100
0
VERTEX
8
1
10
3565.6114
20
1199.0600
0
VERTEX
8
1
10
3520.1100
20
1200.1100
0
SEQEND
0
POLYLINE
8
2
62
1
66
1
6
CONTINUOUS
0
VERTEX
8
2
10
4015.9956
20
1583.1868
0
VERTEX
8
2
10
4009.1955
20
1575.8548
0
SEQEND
0
TEXT
8
2
62
1
10
3600.4564
20
1396.0650
40
12.0000
50
47.1556
1
CR1/1_2
0
ENDBLK
5
78
100
AcDbBlockEnd
0
BLOCK
5
79
100
AcDbEntity
8
1
100
AcDbBlockBegin
10
0
20
0
30
0
2
Panel79
70
0
3
Panel79
0
POLYLINE
8
1
62
0
66
1
6
CONTINUOUS
0
VERTEX
8
1
10
3520.1100
20
1200.1100
0
VERTEX
8
1
10
3529.9232
20
1234.2733
0
VERTEX
8
1
10
3554.4532
20
1319.9489
0
SEQEND
0
POLYLINE
8
1
62
0
66
1
6
CONTINUOUS
0
VERTEX
8
1
10
3554.4532
20
1319.9489
0
VERTEX
8
1
10
4015.9956
20
1583.1868
0
SEQEND
0
POLYLINE
8
1
62
0
66
1
6
CONTINUOUS
0
VERTEX
8
1
10
4015.9956
20
1583.1868
0
VERTEX
8
1
10
4022.3363
20
1573.4205
0
VERTEX
8
1
10
4035.9260
20
1547.2995
0
VERTEX
8
1
10
4047.0059
20
1520.1819
0
VERTEX
8
1
10
4055.6598
20
1492.2645
0
VERTEX
8
1
10
4061.9719
20
1463.7443
0
VERTEX
8
1
10
4066.0260
20
1434.8182
0
VERTEX
8
1
10
4067.9061
20
1405.6830
0
VERTEX
8
1
10
4067.7312
20
1381.3807
0
SEQEND
0
POLYLINE
8
1
62
0
66
1
6
CONTINUOUS
0
VERTEX
8
1
10
4067.7312
20
1381.3807
0
VERTEX
8
1
10
3740.9746
20
1195.0171
0
SEQEND
0
POLYLINE
8
1
62
0
66
1
6
CONTINUOUS
0
VERTEX
8
1
10
3740.9746
20
1195.0171
0
VERTEX
8
1
10
3702.2318
20
1195.9100
0
VERTEX
8
1
10
3656.6717
20
1196.9600
0
VERTEX
8
1
10
3611.1317
20
1198.0100
0
VERTEX
8
1
10
3565.6114
20
1199.0600
0
VERTEX
8
1
10
3520.1100
20
1200.1100
0
SEQEND
0
POLYLINE
8
2
62
1
66
1
6
CONTINUOUS
0
VERTEX
8
2
10
4067.8144
20
1392.9403
0
VERTEX
8
2
10
4059.1279
20
1387.9860
0
SEQEND
0
TEXT
8
2
62
1
10
3582.8577
20
1320.6079
40
12.0000
50
29.6980
1
CR1/1_3
0
ENDBLK
5
79
100
AcDbBlockEnd
0
BLOCK
5
80
100
AcDbEntity
8
1
100
AcDbBlockBegin
10
0
20
0
30
0
2
Panel80
70
0
3
Panel80
0
POLYLINE
8
1
62
0
66
1
6
CONTINUOUS
0
VERTEX
8
1
10
3520.1100
20
1200.1100
0
VERTEX
8
1
10
3529.9232
20
1234.2733
0
VERTEX
8
1
10
3547.3191
20
1295.0316
0
SEQEND
0
POLYLINE
8
1
62
0
66
1
6
CONTINUOUS
0
VERTEX
8
1
10
3547.3191
20
1295.0316
0
VERTEX
8
1
10
4067.8144
20
1392.9403
0
SEQEND
0
POLYLINE
8
1
62
0
66
1
6
CONTINUOUS
0
VERTEX
8
1
10
4067.8144
20
1392.9403
0
VERTEX
8
1
10
4067.6963
20
1376.5358
0
VERTEX
8
1
10
4065.4805
20
1347.5735
0
VERTEX
8
1
10
4061.3428
20
1318.9930
0
VERTEX
8
1
10
4055.3670
20
1290.9912
0
VERTEX
8
1
10
4047.6372
20
1263.7651
0
VERTEX
8
1
10
4038.2374
20
1237.5116
0
VERTEX
8
1
10
4027.2515
20
1212.4275
0
VERTEX
8
1
10
4014.7636
20
1188.7099
0
SEQEND
0
POLYLINE
8
1
62
0
66
1
6
CONTINUOUS
0
VERTEX
8
1
10
4014.7636
20
1188.7099
0
VERTEX
8
1
10
3975.5631
20
1189.6099
0
VERTEX
8
1
10
3930.0330
20
1190.6599
0
VERTEX
8
1
10
3884.4830
20
1191.7099
0
VERTEX
8
1
10
3838.9228
20
1192.7599
0
VERTEX
8
1
10
3793.3625
20
1193.8099
0
VERTEX
8
1
10
3747.7921
20
1194.8600
0
VERTEX
8
1
10
3702.2318
20
1195.9100
0
VERTEX
8
1
10
3656.6717
20
1196.9600
0
VERTEX
8
1
10
3611.1317
20
1198.0100
0
VERTEX
8
1
10
3565.6114
20
1199.0600
0
VERTEX
8
1
10
3520.1100
20
1200.1100
0
SEQEND
0
POLYLINE
8
2
62
1
66
1
6
CONTINUOUS
0
VERTEX
8
2
10
4019.9671
20
1198.5926
0
VERTEX
8
2
10
4009.9697
20
1198.8231
0
SEQEND
0
TEXT
8
2
62
1
10
3574.3839
20
1286.3859
40
12.0000
50
10.6532
1
CR1/1_4
0
ENDBLK
5
80
100
AcDbBlockEnd
0
BLOCK
5
81
100
AcDbEntity
8
1
100
AcDbBlockBegin
10
0
20
0
30
0
2
Panel81
70
0
3
Panel81
0
POLYLINE
8
1
62
0
66
1
6
CONTINUOUS
0
VERTEX
8
1
10
3477.1370
20
1061.2987
0
VERTEX
8
1
10
3503.1600
20
1145.2399
0
VERTEX
8
1
10
3520.1100
20
1200.1100
0
VERTEX
8
1
10
3529.9232
20
1234.2733
0
VERTEX
8
1
10
3555.5307
20
1323.7120
0
VERTEX
8
1
10
3557.6000
20
1330.9671
0
SEQEND
0
POLYLINE
8
1
62
0
66
1
6
CONTINUOUS
0
VERTEX
8
1
10
3557.6000
20
1330.9671
0
VERTEX
8
1
10
4019.9671
20
1198.5926
0
SEQEND
0
POLYLINE
8
1
62
0
66
1
6
CONTINUOUS
0
VERTEX
8
1
10
4019.9671
20
1198.5926
0
VERTEX
8
1
10
4014.7636
20
1188.7099
0
VERTEX
8
1
10
4014.7636
20
1188.7099
0
VERTEX
8
1
10
4009.7836
20
1180.3296
0
VERTEX
8
1
10
4004.6007
20
1172.1639
0
VERTEX
8
1
10
3999.2059
20
1164.2143
0
VERTEX
8
1
10
3993.5899
20
1156.4820
0
VERTEX
8
1
10
3987.7435
20
1148.9683
0
VERTEX
8
1
10
3981.6576
20
1141.6743
0
VERTEX
8
1
10
3975.3229
20
1134.6015
0
VERTEX
8
1
10
3968.7302
20
1127.7511
0
VERTEX
8
1
10
3961.8705
20
1121.1243
0
VERTEX
8
1
10
3954.7344
20
1114.7225
0
VERTEX
8
1
10
3947.3128
20
1108.5468
0
VERTEX
8
1
10
3939.5965
20
1102.5986
0
VERTEX
8
1
10
3931.5763
20
1096.8792
0
VERTEX
8
1
10
3923.2431
20
1091.3898
0
VERTEX
8
1
10
3914.5876
20
1086.1317
0
VERTEX
8
1
10
3905.6006
20
1081.1062
0
VERTEX
8
1
10
3896.2731
20
1076.3145
0
VERTEX
8
1
10
3886.5957
20
1071.7579
0
VERTEX
8
1
10
3876.5593
20
1067.4377
0
VERTEX
8
1
10
3866.1547
20
1063.3552
0
VERTEX
8
1
10
3866.1547
20
1063.3552
0
VERTEX
8
1
10
3843.4194
20
1055.6385
0
VERTEX
8
1
10
3819.3327
20
1048.8881
0
VERTEX
8
1
10
3794.1669
20
1043.0422
0
VERTEX
8
1
10
3768.1942
20
1038.0392
0
VERTEX
8
1
10
3741.6867
20
1033.8174
0
VERTEX
8
1
10
3714.9167
20
1030.3150
0
VERTEX
8
1
10
3688.1563
20
1027.4705
0
VERTEX
8
1
10
3661.6778
20
1025.2220
0
VERTEX
8
1
10
3635.7533
20
1023.5079
0
VERTEX
8
1
10
3613.0562
20
1022.3853
0
SEQEND
0
POLYLINE
8
1
62
0
66
1
6
CONTINUOUS
0
VERTEX
8
1
10
3613.0562
20
1022.3853
0
VERTEX
8
1
10
3477.1370
20
1061.2987
0
SEQEND
0
POLYLINE
8
2
62
1
66
1
6
CONTINUOUS
0
VERTEX
8
2
10
3643.6447
20
1024.0297
0
VERTEX
8
2
10
3634.0309
20
1026.7821
0
SEQEND
0
TEXT
8
2
62
1
10
3577.9187
20
1311.1076
40
12.0000
50
344.0237
1
CR1/1_5
0
ENDBLK
5
81
100
AcDbBlockEnd
0
BLOCK
5
82
100
AcDbEntity
8
1
100
AcDbBlockBegin
10
0
20
0
30
0
2
Panel82
70
0
3
Panel82
0
POLYLINE
8
1
62
0
66
1
6
CONTINUOUS
0
VERTEX
8
1
10
3679.8103
20
1752.0721
0
VERTEX
8
1
10
3643.6447
20
1024.0297
0
SEQEND
0
POLYLINE
8
1
62
0
66
1
6
CONTINUOUS
0
VERTEX
8
1
10
3643.6447
20
1024.0297
0
VERTEX
8
1
10
3635.7533
20
1023.5079
0
VERTEX
8
1
10
3610.6551
20
1022.2666
0
VERTEX
8
1
10
3586.6553
20
1021.4362
0
VERTEX
8
1
10
3564.0261
20
1020.9552
0
VERTEX
8
1
10
3543.0398
20
1020.7619
0
VERTEX
8
1
10
3523.9686
20
1020.7944
0
VERTEX
8
1
10
3507.0845
20
1020.9912
0
VERTEX
8
1
10
3492.6599
20
1021.2906
0
VERTEX
8
1
10
3480.9670
20
1021.6308
0
VERTEX
8
1
10
3472.2779
20
1021.9502
0
VERTEX
8
1
10
3466.8648
20
1022.1871
0
VERTEX
8
1
10
3464.9999
20
1022.2798
0
SEQEND
0
POLYLINE
8
1
62
0
66
1
6
CONTINUOUS
0
VERTEX
8
1
10
3679.8103
20
1752.0721
0
VERTEX
8
1
10
3657.7877
20
1684.0489
0
VERTEX
8
1
10
3657.3070
20
1682.5690
0
VERTEX
8
1
10
3631.9493
20
1592.6454
0
VERTEX
8
1
10
3606.5288
20
1502.8820
0
VERTEX
8
1
10
3581.0660
20
1413.2380
0
VERTEX
8
1
10
3555.5307
20
1323.7120
0
VERTEX
8
1
10
3529.9232
20
1234.2733
0
VERTEX
8
1
10
3520.1100
20
1200.1100
0
VERTEX
8
1
10
3503.1600
20
1145.2399
0
VERTEX
8
1
10
3475.6400
20
1056.4699
0
VERTEX
8
1
10
3464.9999
20
1022.2798
0
SEQEND
0
TEXT
8
2
62
1
10
3665.0866
20
1727.7727
40
12.0000
50
87.1562
1
CR1/1_6
0
ENDBLK
5
82
100
AcDbBlockEnd
0
BLOCK
5
83
100
AcDbEntity
8
1
100
AcDbBlockBegin
10
0
20
0
30
0
2
Panel83
70
0
3
Panel83
0
POLYLINE
8
1
62
0
66
1
6
CONTINUOUS
0
VERTEX
8
1
10
3520.1200
20
1200.1100
0
VERTEX
8
1
10
3565.1210
20
1193.6498
0
VERTEX
8
1
10
3610.1412
20
1187.1898
0
VERTEX
8
1
10
3655.1812
20
1180.7298
0
VERTEX
8
1
10
3700.2313
20
1174.2698
0
VERTEX
8
1
10
3745.2916
20
1167.8098
0
VERTEX
8
1
10
3790.3418
20
1161.3497
0
VERTEX
8
1
10
3793.2918
20
1160.9297
0
SEQEND
0
POLYLINE
8
1
62
0
66
1
6
CONTINUOUS
0
VERTEX
8
1
10
3793.2918
20
1160.9297
0
VERTEX
8
1
10
3794.0999
20
1162.3877
0
VERTEX
8
1
10
3796.3765
20
1166.6141
0
VERTEX
8
1
10
3799.9002
20
1173.3877
0
VERTEX
8
1
10
3804.4497
20
1182.4872
0
VERTEX
8
1
10
3809.8035
20
1193.6914
0
VERTEX
8
1
10
3815.7402
20
1206.7790
0
VERTEX
8
1
10
3822.0384
20
1221.5288
0
VERTEX
8
1
10
3828.4767
20
1237.7195
0
VERTEX
8
1
10
3834.8337
20
1255.1298
0
VERTEX
8
1
10
3840.8879
20
1273.5385
0
VERTEX
8
1
10
3846.4181
20
1292.7243
0
VERTEX
8
1
10
3851.2026
20
1312.4660
0
VERTEX
8
1
10
3855.0203
20
1332.5424
0
VERTEX
8
1
10
3857.6496
20
1352.7321
0
VERTEX
8
1
10
3858.8691
20
1372.8139
0
VERTEX
8
1
10
3858.4575
20
1392.5665
0
VERTEX
8
1
10
3856.1932
20
1411.7688
0
VERTEX
8
1
10
3851.8550
20
1430.1994
0
VERTEX
8
1
10
3845.2214
20
1447.6371
0
VERTEX
8
1
10
3836.0710
20
1463.8606
0
VERTEX
8
1
10
3827.6894
20
1474.8632
0
VERTEX
8
1
10
3818.0240
20
1485.1158
0
VERTEX
8
1
10
3807.2602
20
1494.6385
0
VERTEX
8
1
10
3795.5833
20
1503.4514
0
VERTEX
8
1
10
3783.1785
20
1511.5745
0
VERTEX
8
1
10
3770.2311
20
1519.0279
0
VERTEX
8
1
10
3756.9265
20
1525.8318
0
VERTEX
8
1
10
3743.4499
20
1532.0063
0
VERTEX
8
1
10
3729.9867
20
1537.5713
0
VERTEX
8
1
10
3716.7220
20
1542.5470
0
VERTEX
8
1
10
3703.8412
20
1546.9535
0
VERTEX
8
1
10
3691.5297
20
1550.8109
0
VERTEX
8
1
10
3679.9726
20
1554.1393
0
VERTEX
8
1
10
3669.3553
20
1556.9587
0
VERTEX
8
1
10
3659.8630
20
1559.2892
0
VERTEX
8
1
10
3651.6812
20
1561.1510
0
VERTEX
8
1
10
3644.9949
20
1562.5640
0
VERTEX
8
1
10
3639.9896
20
1563.5485
0
VERTEX
8
1
10
3636.8506
20
1564.1244
0
VERTEX
8
1
10
3635.7631
20
1564.3120
0
SEQEND
0
POLYLINE
8
1
62
0
66
1
6
CONTINUOUS
0
VERTEX
8
1
10
3635.7631
20
1564.3120
0
VERTEX
8
1
10
3615.5148
20
1500.1688
0
VERTEX
8
1
10
3587.3911
20
1411.3235
0
VERTEX
8
1
10
3559.1986
20
1322.5991
0
VERTEX
8
1
10
3530.9369
20
1233.9648
0
VERTEX
8
1
10
3520.1200
20
1200.1100
0
SEQEND
0
TEXT
8
2
62
1
10
3545.5689
20
1233.9974
40
12.0000
50
72.3841
1
CR1/2
0
ENDBLK
5
83
100
AcDbBlockEnd
0
BLOCK
5
84
100
AcDbEntity
8
1
100
AcDbBlockBegin
10
0
20
0
30
0
2
Panel84
70
0
3
Panel84
0
POLYLINE
8
1
62
0
66
1
6
CONTINUOUS
0
VERTEX
8
1
10
3520.1200
20
1200.1100
0
VERTEX
8
1
10
3565.1209
20
1193.6499
0
VERTEX
8
1
10
3610.1409
20
1187.1899
0
VERTEX
8
1
10
3655.1810
20
1180.7299
0
VERTEX
8
1
10
3700.2311
20
1174.2698
0
VERTEX
8
1
10
3745.2914
20
1167.8098
0
VERTEX
8
1
10
3755.3415
20
1166.3698
0
SEQEND
0
POLYLINE
8
1
62
0
66
1
6
CONTINUOUS
0
VERTEX
8
1
10
3755.3415
20
1166.3698
0
VERTEX
8
1
10
3756.0631
20
1167.7604
0
VERTEX
8
1
10
3758.0903
20
1171.7875
0
VERTEX
8
1
10
3761.2169
20
1178.2344
0
VERTEX
8
1
10
3765.2366
20
1186.8842
0
VERTEX
8
1
10
3769.9431
20
1197.5198
0
VERTEX
8
1
10
3775.1302
20
1209.9246
0
VERTEX
8
1
10
3780.5915
20
1223.8816
0
VERTEX
8
1
10
3786.1208
20
1239.1739
0
VERTEX
8
1
10
3791.5118
20
1255.5847
0
VERTEX
8
1
10
3796.5582
20
1272.8971
0
VERTEX
8
1
10
3801.0538
20
1290.8941
0
VERTEX
8
1
10
3804.7923
20
1309.3591
0
VERTEX
8
1
10
3807.5673
20
1328.0749
0
VERTEX
8
1
10
3809.1727
20
1346.8249
0
VERTEX
8
1
10
3809.4022
20
1365.3920
0
VERTEX
8
1
10
3808.0494
20
1383.5595
0
VERTEX
8
1
10
3804.9080
20
1401.1105
0
VERTEX
8
1
10
3799.7719
20
1417.8280
0
VERTEX
8
1
10
3792.4348
20
1433.4952
0
VERTEX
8
1
10
3782.6903
20
1447.8953
0
VERTEX
8
1
10
3775.3183
20
1456.1654
0
VERTEX
8
1
10
3767.0623
20
1463.8712
0
VERTEX
8
1
10
3758.0587
20
1471.0278
0
VERTEX
8
1
10
3748.4439
20
1477.6504
0
VERTEX
8
1
10
3738.3544
20
1483.7542
0
VERTEX
8
1
10
3727.9268
20
1489.3543
0
VERTEX
8
1
10
3717.2974
20
1494.4658
0
VERTEX
8
1
10
3706.6029
20
1499.1040
0
VERTEX
8
1
10
3695.9795
20
1503.2840
0
VERTEX
8
1
10
3685.5640
20
1507.0210
0
VERTEX
8
1
10
3675.4926
20
1510.3301
0
VERTEX
8
1
10
3665.9020
20
1513.2265
0
VERTEX
8
1
10
3656.9285
20
1515.7254
0
VERTEX
8
1
10
3648.7087
20
1517.8419
0
VERTEX
8
1
10
3641.3790
20
1519.5911
0
VERTEX
8
1
10
3635.0759
20
1520.9883
0
VERTEX
8
1
10
3629.9360
20
1522.0487
0
VERTEX
8
1
10
3626.0956
20
1522.7873
0
VERTEX
8
1
10
3623.6913
20
1523.2193
0
VERTEX
8
1
10
3622.8595
20
1523.3600
0
SEQEND
0
POLYLINE
8
1
62
0
66
1
6
CONTINUOUS
0
VERTEX
8
1
10
3622.8595
20
1523.3600
0
VERTEX
8
1
10
3615.5369
20
1500.1615
0
VERTEX
8
1
10
3587.4066
20
1411.3181
0
VERTEX
8
1
10
3559.2076
20
1322.5958
0
VERTEX
8
1
10
3530.9394
20
1233.9638
0
VERTEX
8
1
10
3520.1200
20
1200.1100
0
SEQEND
0
TEXT
8
2
62
1
10
3545.5784
20
1233.9902
40
12.0000
50
72.3680
1
CR1/3
0
ENDBLK
5
84
100
AcDbBlockEnd
0
BLOCK
5
85
100
AcDbEntity
8
1
100
AcDbBlockBegin
10
0
20
0
30
0
2
Panel85
70
0
3
Panel85
0
POLYLINE
8
1
62
0
66
1
6
CONTINUOUS
0
VERTEX
8
1
10
3520.1200
20
1200.1100
0
VERTEX
8
1
10
3565.1206
20
1193.6499
0
VERTEX
8
1
10
3610.1407
20
1187.1899
0
VERTEX
8
1
10
3655.1807
20
1180.7299
0
VERTEX
8
1
10
3700.2310
20
1174.2699
0
VERTEX
8
1
10
3707.0211
20
1173.2998
0
SEQEND
0
POLYLINE
8
1
62
0
66
1
6
CONTINUOUS
0
VERTEX
8
1
10
3707.0211
20
1173.2998
0
VERTEX
8
1
10
3707.7411
20
1174.6091
0
VERTEX
8
1
10
3709.7637
20
1178.3968
0
VERTEX
8
1
10
3712.8833
20
1184.4523
0
VERTEX
8
1
10
3716.8940
20
1192.5655
0
VERTEX
8
1
10
3721.5901
20
1202.5257
0
VERTEX
8
1
10
3726.7656
20
1214.1227
0
VERTEX
8
1
10
3732.2149
20
1227.1460
0
VERTEX
8
1
10
3737.7321
20
1241.3853
0
VERTEX
8
1
10
3743.1115
20
1256.6301
0
VERTEX
8
1
10
3748.1472
20
1272.6701
0
VERTEX
8
1
10
3752.6334
20
1289.2948
0
VERTEX
8
1
10
3756.3643
20
1306.2939
0
VERTEX
8
1
10
3759.1342
20
1323.4569
0
VERTEX
8
1
10
3760.7373
20
1340.5735
0
VERTEX
8
1
10
3760.9676
20
1357.4333
0
VERTEX
8
1
10
3759.6196
20
1373.8258
0
VERTEX
8
1
10
3756.4873
20
1389.5407
0
VERTEX
8
1
10
3751.3649
20
1404.3675
0
VERTEX
8
1
10
3744.0467
20
1418.0959
0
VERTEX
8
1
10
3734.3268
20
1430.5155
0
VERTEX
8
1
10
3728.2539
20
1436.4133
0
VERTEX
8
1
10
3721.5706
20
1441.9083
0
VERTEX
8
1
10
3714.3766
20
1447.0112
0
VERTEX
8
1
10
3706.7716
20
1451.7331
0
VERTEX
8
1
10
3698.8553
20
1456.0846
0
VERTEX
8
1
10
3690.7273
20
1460.0768
0
VERTEX
8
1
10
3682.4874
20
1463.7203
0
VERTEX
8
1
10
3674.2352
20
1467.0262
0
VERTEX
8
1
10
3666.0703
20
1470.0052
0
VERTEX
8
1
10
3658.0925
20
1472.6682
0
VERTEX
8
1
10
3650.4015
20
1475.0261
0
VERTEX
8
1
10
3643.0968
20
1477.0897
0
VERTEX
8
1
10
3636.2782
20
1478.8699
0
VERTEX
8
1
10
3630.0454
20
1480.3774
0
VERTEX
8
1
10
3624.4979
20
1481.6233
0
VERTEX
8
1
10
3619.7356
20
1482.6183
0
VERTEX
8
1
10
3615.8581
20
1483.3733
0
VERTEX
8
1
10
3612.9650
20
1483.8991
0
VERTEX
8
1
10
3611.1561
20
1484.2067
0
VERTEX
8
1
10
3610.5310
20
1484.3068
0
SEQEND
0
POLYLINE
8
1
62
0
66
1
6
CONTINUOUS
0
VERTEX
8
1
10
3610.5310
20
1484.3068
0
VERTEX
8
1
10
3587.4161
20
1411.3149
0
VERTEX
8
1
10
3559.2131
20
1322.5938
0
VERTEX
8
1
10
3530.9409
20
1233.9633
0
VERTEX
8
1
10
3520.1200
20
1200.1100
0
SEQEND
0
TEXT
8
2
62
1
10
3545.5875
20
1233.9834
40
12.0000
50
72.3527
1
CR1/4
0
ENDBLK
5
85
100
AcDbBlockEnd
0
ENDSEC
0
SECTION
2
ENTITIES
0
INSERT
100
AcDbBlockReference
2
Panel1
10
0
20
0
30
0
0
INSERT
100
AcDbBlockReference
2
Panel2
10
0
20
0
30
0
0
INSERT
100
AcDbBlockReference
2
Panel3
10
0
20
0
30
0
0
INSERT
100
AcDbBlockReference
2
Panel4
10
0
20
0
30
0
0
INSERT
100
AcDbBlockReference
2
Panel5
10
0
20
0
30
0
0
INSERT
100
AcDbBlockReference
2
Panel6
10
0
20
0
30
0
0
INSERT
100
AcDbBlockReference
2
Panel7
10
0
20
0
30
0
0
INSERT
100
AcDbBlockReference
2
Panel8
10
0
20
0
30
0
0
INSERT
100
AcDbBlockReference
2
Panel9
10
0
20
0
30
0
0
INSERT
100
AcDbBlockReference
2
Panel10
10
0
20
0
30
0
0
INSERT
100
AcDbBlockReference
2
Panel11
10
0
20
0
30
0
0
INSERT
100
AcDbBlockReference
2
Panel12
10
0
20
0
30
0
0
INSERT
100
AcDbBlockReference
2
Panel13
10
0
20
0
30
0
0
INSERT
100
AcDbBlockReference
2
Panel14
10
0
20
0
30
0
0
INSERT
100
AcDbBlockReference
2
Panel15
10
0
20
0
30
0
0
INSERT
100
AcDbBlockReference
2
Panel16
10
0
20
0
30
0
0
INSERT
100
AcDbBlockReference
2
Panel17
10
0
20
0
30
0
0
INSERT
100
AcDbBlockReference
2
Panel18
10
0
20
0
30
0
0
INSERT
100
AcDbBlockReference
2
Panel19
10
0
20
0
30
0
0
INSERT
100
AcDbBlockReference
2
Panel20
10
0
20
0
30
0
0
INSERT
100
AcDbBlockReference
2
Panel21
10
0
20
0
30
0
0
INSERT
100
AcDbBlockReference
2
Panel22
10
0
20
0
30
0
0
INSERT
100
AcDbBlockReference
2
Panel23
10
0
20
0
30
0
0
INSERT
100
AcDbBlockReference
2
Panel24
10
0
20
0
30
0
0
INSERT
100
AcDbBlockReference
2
Panel25
10
0
20
0
30
0
0
INSERT
100
AcDbBlockReference
2
Panel26
10
0
20
0
30
0
0
INSERT
100
AcDbBlockReference
2
Panel27
10
0
20
0
30
0
0
INSERT
100
AcDbBlockReference
2
Panel28
10
0
20
0
30
0
0
INSERT
100
AcDbBlockReference
2
Panel29
10
0
20
0
30
0
0
INSERT
100
AcDbBlockReference
2
Panel30
10
0
20
0
30
0
0
INSERT
100
AcDbBlockReference
2
Panel31
10
0
20
0
30
0
0
INSERT
100
AcDbBlockReference
2
Panel32
10
0
20
0
30
0
0
INSERT
100
AcDbBlockReference
2
Panel33
10
0
20
0
30
0
0
INSERT
100
AcDbBlockReference
2
Panel34
10
0
20
0
30
0
0
INSERT
100
AcDbBlockReference
2
Panel35
10
0
20
0
30
0
0
INSERT
100
AcDbBlockReference
2
Panel36
10
0
20
0
30
0
0
INSERT
100
AcDbBlockReference
2
Panel37
10
0
20
0
30
0
0
INSERT
100
AcDbBlockReference
2
Panel38
10
0
20
0
30
0
0
INSERT
100
AcDbBlockReference
2
Panel39
10
0
20
0
30
0
0
INSERT
100
AcDbBlockReference
2
Panel40
10
0
20
0
30
0
0
INSERT
100
AcDbBlockReference
2
Panel41
10
0
20
0
30
0
0
INSERT
100
AcDbBlockReference
2
Panel42
10
0
20
0
30
0
0
INSERT
100
AcDbBlockReference
2
Panel43
10
0
20
0
30
0
0
INSERT
100
AcDbBlockReference
2
Panel44
10
0
20
0
30
0
0
INSERT
100
AcDbBlockReference
2
Panel45
10
0
20
0
30
0
0
INSERT
100
AcDbBlockReference
2
Panel46
10
0
20
0
30
0
0
INSERT
100
AcDbBlockReference
2
Panel47
10
0
20
0
30
0
0
INSERT
100
AcDbBlockReference
2
Panel48
10
0
20
0
30
0
0
INSERT
100
AcDbBlockReference
2
Panel49
10
0
20
0
30
0
0
INSERT
100
AcDbBlockReference
2
Panel50
10
0
20
0
30
0
0
INSERT
100
AcDbBlockReference
2
Panel51
10
0
20
0
30
0
0
INSERT
100
AcDbBlockReference
2
Panel52
10
0
20
0
30
0
0
INSERT
100
AcDbBlockReference
2
Panel53
10
0
20
0
30
0
0
INSERT
100
AcDbBlockReference
2
Panel54
10
0
20
0
30
0
0
INSERT
100
AcDbBlockReference
2
Panel55
10
0
20
0
30
0
0
INSERT
100
AcDbBlockReference
2
Panel56
10
0
20
0
30
0
0
INSERT
100
AcDbBlockReference
2
Panel57
10
0
20
0
30
0
0
INSERT
100
AcDbBlockReference
2
Panel58
10
0
20
0
30
0
0
INSERT
100
AcDbBlockReference
2
Panel59
10
0
20
0
30
0
0
INSERT
100
AcDbBlockReference
2
Panel60
10
0
20
0
30
0
0
INSERT
100
AcDbBlockReference
2
Panel61
10
0
20
0
30
0
0
INSERT
100
AcDbBlockReference
2
Panel62
10
0
20
0
30
0
0
INSERT
100
AcDbBlockReference
2
Panel63
10
0
20
0
30
0
0
INSERT
100
AcDbBlockReference
2
Panel64
10
0
20
0
30
0
0
INSERT
100
AcDbBlockReference
2
Panel65
10
0
20
0
30
0
0
INSERT
100
AcDbBlockReference
2
Panel66
10
0
20
0
30
0
0
INSERT
100
AcDbBlockReference
2
Panel67
10
0
20
0
30
0
0
INSERT
100
AcDbBlockReference
2
Panel68
10
0
20
0
30
0
0
INSERT
100
AcDbBlockReference
2
Panel69
10
0
20
0
30
0
0
INSERT
100
AcDbBlockReference
2
Panel70
10
0
20
0
30
0
0
INSERT
100
AcDbBlockReference
2
Panel71
10
0
20
0
30
0
0
INSERT
100
AcDbBlockReference
2
Panel72
10
0
20
0
30
0
0
INSERT
100
AcDbBlockReference
2
Panel73
10
0
20
0
30
0
0
INSERT
100
AcDbBlockReference
2
Panel74
10
0
20
0
30
0
0
INSERT
100
AcDbBlockReference
2
Panel75
10
0
20
0
30
0
0
INSERT
100
AcDbBlockReference
2
Panel76
10
0
20
0
30
0
0
INSERT
100
AcDbBlockReference
2
Panel77
10
0
20
0
30
0
0
INSERT
100
AcDbBlockReference
2
Panel78
10
0
20
0
30
0
0
INSERT
100
AcDbBlockReference
2
Panel79
10
0
20
0
30
0
0
INSERT
100
AcDbBlockReference
2
Panel80
10
0
20
0
30
0
0
INSERT
100
AcDbBlockReference
2
Panel81
10
0
20
0
30
0
0
INSERT
100
AcDbBlockReference
2
Panel82
10
0
20
0
30
0
0
INSERT
100
AcDbBlockReference
2
Panel83
10
0
20
0
30
0
0
INSERT
100
AcDbBlockReference
2
Panel84
10
0
20
0
30
0
0
INSERT
100
AcDbBlockReference
2
Panel85
10
0
20
0
30
0
0
ENDSEC
0
EOF
